  0
SECTION
  2
HEADER
  9
$ACADVER
  1
AC1014
  9
$HANDSEED
  5
FFFF
  9
$MEASUREMENT
 70
     1
  0
ENDSEC
  0
SECTION
  2
TABLES
  0
TABLE
  2
VPORT
  5
8
330
0
100
AcDbSymbolTable
 70
     4
  0
VPORT
  5
2E
330
8
100
AcDbSymbolTableRecord
100
AcDbViewportTableRecord
  2
*ACTIVE
 70
     0
 10
0.0
 20
0.0
 11
1.0
 21
1.0
 12
210.0
 22
148.5
 13
0.0
 23
0.0
 14
10.0
 24
10.0
 15
10.0
 25
10.0
 16
0.0
 26
0.0
 36
1.0
 17
0.0
 27
0.0
 37
0.0
 40
341.0
 41
1.24
 42
50.0
 43
0.0
 44
0.0
 50
0.0
 51
0.0
 71
     0
 72
   100
 73
     1
 74
     3
 75
     0
 76
     0
 77
     0
 78
     0
  0
ENDTAB
  0
TABLE
  2
LTYPE
  5
5
330
0
100
AcDbSymbolTable
 70
     1
  0
LTYPE
  5
14
330
5
100
AcDbSymbolTableRecord
100
AcDbLinetypeTableRecord
  2
BYBLOCK
 70
     0
  3

 72
    65
 73
     0
 40
0.0
  0
LTYPE
  5
15
330
5
100
AcDbSymbolTableRecord
100
AcDbLinetypeTableRecord
  2
BYLAYER
 70
     0
  3

 72
    65
 73
     0
 40
0.0
  0
LTYPE
  5
16
330
5
100
AcDbSymbolTableRecord
100
AcDbLinetypeTableRecord
  2
CONTINUOUS
 70
     0
  3
Solid line
 72
    65
 73
     0
 40
0.0
  0
ENDTAB
  0
TABLE
  2
LAYER
  5
2
100
AcDbSymbolTable
 70
2
  0
LAYER
  5
50
100
AcDbSymbolTableRecord
100
AcDbLayerTableRecord
  2
0
 70
0
  6
CONTINUOUS
  0
LAYER
  5
51
100
AcDbSymbolTableRecord
100
AcDbLayerTableRecord
  2
Layer_1
 70
0
  6
CONTINUOUS
  0
ENDTAB
  0
TABLE
  2
STYLE
  5
3
330
0
100
AcDbSymbolTable
 70
     1
  0
STYLE
  5
11
330
3
100
AcDbSymbolTableRecord
100
AcDbTextStyleTableRecord
  2
STANDARD
 70
     0
 40
0.0
 41
1.0
 50
0.0
 71
     0
 42
2.5
  3
txt
  4

  0
ENDTAB
  0
TABLE
  2
VIEW
  5
6
330
0
100
AcDbSymbolTable
 70
     0
  0
ENDTAB
  0
TABLE
  2
UCS
  5
7
330
0
100
AcDbSymbolTable
 70
     0
  0
ENDTAB
  0
TABLE
  2
APPID
  5
9
330
0
100
AcDbSymbolTable
 70
     2
  0
APPID
  5
12
330
9
100
AcDbSymbolTableRecord
100
AcDbRegAppTableRecord
  2
ACAD
 70
     0
  0
ENDTAB
  0
TABLE
  2
DIMSTYLE
  5
A
330
0
100
AcDbSymbolTable
 70
     1
  0
DIMSTYLE
105
27
330
A
100
AcDbSymbolTableRecord
100
AcDbDimStyleTableRecord
  2
ISO-25
 70
     0
  3

  4

  5

  6

  7

 40
1.0
 41
2.5
 42
0.625
 43
3.75
 44
1.25
 45
0.0
 46
0.0
 47
0.0
 48
0.0
140
2.5
141
2.5
142
0.0
143
0.03937007874016
144
1.0
145
0.0
146
1.0
147
0.625
 71
     0
 72
     0
 73
     0
 74
     0
 75
     0
 76
     0
 77
     1
 78
     8
170
     0
171
     3
172
     1
173
     0
174
     0
175
     0
176
     0
177
     0
178
     0
270
     2
271
     2
272
     2
273
     2
274
     3
340
11
275
     0
280
     0
281
     0
282
     0
283
     0
284
     8
285
     0
286
     0
287
     3
288
     0
  0
ENDTAB
  0
TABLE
  2
BLOCK_RECORD
  5
1
330
0
100
AcDbSymbolTable
 70
     1
  0
BLOCK_RECORD
  5
1F
330
1
100
AcDbSymbolTableRecord
100
AcDbBlockTableRecord
  2
*MODEL_SPACE
  0
BLOCK_RECORD
  5
1B
330
1
100
AcDbSymbolTableRecord
100
AcDbBlockTableRecord
  2
*PAPER_SPACE
  0
ENDTAB
  0
ENDSEC
  0
SECTION
  2
BLOCKS
  0
BLOCK
  5
20
330
1F
100
AcDbEntity
  8
0
100
AcDbBlockBegin
  2
*MODEL_SPACE
 70
     0
 10
0.0
 20
0.0
 30
0.0
  3
*MODEL_SPACE
  1

  0
ENDBLK
  5
21
330
1F
100
AcDbEntity
  8
0
100
AcDbBlockEnd
  0
BLOCK
  5
1C
330
1B
100
AcDbEntity
 67
     1
  8
0
100
AcDbBlockBegin
  2
*PAPER_SPACE
  1

  0
ENDBLK
  5
1D
330
1B
100
AcDbEntity
 67
     1
  8
0
100
AcDbBlockEnd
  0
ENDSEC
  0
SECTION
  2
ENTITIES
  0
SPLINE
  5
100
100
AcDbEntity
  8
Layer_1
 62
1
100
AcDbSpline
 70
8
 71
3
 72
8
 73
4
 74
0
 40
0
 40
0
 40
0
 40
0
 40
1
 40
1
 40
1
 40
1
 10
-1325.201102
 20
94.769518
 30
0.0
 10
-1349.139685
 20
94.488605
 30
0.0
 10
-1372.831654
 20
89.983531
 30
0.0
 10
-1395.447307
 20
81.515339
 30
0.0
  0
SPLINE
  5
101
100
AcDbEntity
  8
Layer_1
 62
1
100
AcDbSpline
 70
8
 71
3
 72
8
 73
4
 74
0
 40
0
 40
0
 40
0
 40
0
 40
1
 40
1
 40
1
 40
1
 10
-1395.447307
 20
81.515339
 30
0.0
 10
-1409.322898
 20
76.075795
 30
0.0
 10
-1423.781291
 20
69.516964
 30
0.0
 10
-1439.328756
 20
62.996003
 30
0.0
  0
SPLINE
  5
102
100
AcDbEntity
  8
Layer_1
 62
1
100
AcDbSpline
 70
8
 71
3
 72
8
 73
4
 74
0
 40
0
 40
0
 40
0
 40
0
 40
1
 40
1
 40
1
 40
1
 10
-1439.328756
 20
62.996003
 30
0.0
 10
-1491.834614
 20
40.494104
 30
0.0
 10
-1544.315244
 20
18.176939
 30
0.0
 10
-1596.585260
 20
-4.382192
 30
0.0
  0
SPLINE
  5
103
100
AcDbEntity
  8
Layer_1
 62
1
100
AcDbSpline
 70
8
 71
3
 72
8
 73
4
 74
0
 40
0
 40
0
 40
0
 40
0
 40
1
 40
1
 40
1
 40
1
 10
-1596.585260
 20
-4.382192
 30
0.0
 10
-1622.372315
 20
-16.157707
 30
0.0
 10
-1645.649008
 20
-33.636472
 30
0.0
 10
-1662.839433
 20
-55.062539
 30
0.0
  0
SPLINE
  5
104
100
AcDbEntity
  8
Layer_1
 62
1
100
AcDbSpline
 70
8
 71
3
 72
8
 73
4
 74
0
 40
0
 40
0
 40
0
 40
0
 40
1
 40
1
 40
1
 40
1
 10
-1662.890457
 20
-55.128869
 30
0.0
 10
-1680.384472
 20
-76.824595
 30
0.0
 10
-1691.863654
 20
-103.955017
 30
0.0
 10
-1693.418173
 20
-130.097509
 30
0.0
  0
LWPOLYLINE
  5
105
100
AcDbEntity
  8
Layer_1
 62
1
100
AcDbPolyline
 90
2
 70
0
 10
-1662.839433
 20
-55.062539
 30
0.0
 10
-1662.890457
 20
-55.128869
 30
0.0
  0
SPLINE
  5
106
100
AcDbEntity
  8
Layer_1
 62
1
100
AcDbSpline
 70
8
 71
3
 72
8
 73
4
 74
0
 40
0
 40
0
 40
0
 40
0
 40
1
 40
1
 40
1
 40
1
 10
-1693.418173
 20
-130.274674
 30
0.0
 10
-1694.462173
 20
-146.452479
 30
0.0
 10
-1691.791087
 20
-163.029288
 30
0.0
 10
-1685.667118
 20
-177.987515
 30
0.0
  0
LWPOLYLINE
  5
107
100
AcDbEntity
  8
Layer_1
 62
1
100
AcDbPolyline
 90
2
 70
0
 10
-1693.418173
 20
-130.097509
 30
0.0
 10
-1693.418173
 20
-130.274674
 30
0.0
  0
SPLINE
  5
108
100
AcDbEntity
  8
Layer_1
 62
1
100
AcDbSpline
 70
8
 71
3
 72
8
 73
4
 74
0
 40
0
 40
0
 40
0
 40
0
 40
1
 40
1
 40
1
 40
1
 10
-1685.584913
 20
-178.192460
 30
0.0
 10
-1677.011528
 20
-199.515742
 30
0.0
 10
-1661.079969
 20
-218.716611
 30
0.0
 10
-1641.337795
 20
-232.310948
 30
0.0
  0
LWPOLYLINE
  5
109
100
AcDbEntity
  8
Layer_1
 62
1
100
AcDbPolyline
 90
2
 70
0
 10
-1685.667118
 20
-177.987515
 30
0.0
 10
-1685.584913
 20
-178.192460
 30
0.0
  0
SPLINE
  5
10a
100
AcDbEntity
  8
Layer_1
 62
1
100
AcDbSpline
 70
8
 71
3
 72
8
 73
4
 74
0
 40
0
 40
0
 40
0
 40
0
 40
1
 40
1
 40
1
 40
1
 10
-1641.244252
 20
-232.377279
 30
0.0
 10
-1615.825701
 20
-250.009200
 30
0.0
 10
-1583.702929
 20
-259.740510
 30
0.0
 10
-1551.355087
 20
-261.116816
 30
0.0
  0
SPLINE
  5
10b
100
AcDbEntity
  8
Layer_1
 62
1
100
AcDbSpline
 70
8
 71
3
 72
8
 73
4
 74
0
 40
0
 40
0
 40
0
 40
0
 40
1
 40
1
 40
1
 40
1
 10
-1551.355087
 20
-261.116816
 30
0.0
 10
-1527.550583
 20
-262.125893
 30
0.0
 10
-1503.233575
 20
-258.789175
 30
0.0
 10
-1480.572000
 20
-251.394860
 30
0.0
  0
LWPOLYLINE
  5
10c
100
AcDbEntity
  8
Layer_1
 62
1
100
AcDbPolyline
 90
2
 70
0
 10
-1641.337795
 20
-232.310948
 30
0.0
 10
-1641.244252
 20
-232.377279
 30
0.0
  0
SPLINE
  5
10d
100
AcDbEntity
  8
Layer_1
 62
1
100
AcDbSpline
 70
8
 71
3
 72
8
 73
4
 74
0
 40
0
 40
0
 40
0
 40
0
 40
1
 40
1
 40
1
 40
1
 10
-1480.455780
 20
-251.356025
 30
0.0
 10
-1466.634047
 20
-246.897950
 30
0.0
 10
-1451.525386
 20
-239.720202
 30
0.0
 10
-1434.110457
 20
-232.410416
 30
0.0
  0
LWPOLYLINE
  5
10e
100
AcDbEntity
  8
Layer_1
 62
1
100
AcDbPolyline
 90
2
 70
0
 10
-1480.572000
 20
-251.394860
 30
0.0
 10
-1480.455780
 20
-251.356025
 30
0.0
  0
SPLINE
  5
10f
100
AcDbEntity
  8
Layer_1
 62
1
100
AcDbSpline
 70
8
 71
3
 72
8
 73
4
 74
0
 40
0
 40
0
 40
0
 40
0
 40
1
 40
1
 40
1
 40
1
 10
-1433.923370
 20
-232.333030
 30
0.0
 10
-1419.975213
 20
-226.384639
 30
0.0
 10
-1405.443118
 20
-219.841002
 30
0.0
 10
-1389.892252
 20
-213.719613
 30
0.0
  0
SPLINE
  5
110
100
AcDbEntity
  8
Layer_1
 62
1
100
AcDbSpline
 70
8
 71
3
 72
8
 73
4
 74
0
 40
0
 40
0
 40
0
 40
0
 40
1
 40
1
 40
1
 40
1
 10
-1389.892252
 20
-213.719613
 30
0.0
 10
-1389.717512
 20
-213.651782
 30
0.0
 10
-1389.542231
 20
-213.585355
 30
0.0
 10
-1389.366425
 20
-213.520337
 30
0.0
  0
SPLINE
  5
111
100
AcDbEntity
  8
Layer_1
 62
1
100
AcDbSpline
 70
8
 71
3
 72
8
 73
4
 74
0
 40
0
 40
0
 40
0
 40
0
 40
1
 40
1
 40
1
 40
1
 10
-1389.366425
 20
-213.520337
 30
0.0
 10
-1349.142520
 20
-198.425395
 30
0.0
 10
-1305.002835
 20
-193.846394
 30
0.0
 10
-1262.122866
 20
-201.633647
 30
0.0
  0
SPLINE
  5
112
100
AcDbEntity
  8
Layer_1
 62
1
100
AcDbSpline
 70
8
 71
3
 72
8
 73
4
 74
0
 40
0
 40
0
 40
0
 40
0
 40
1
 40
1
 40
1
 40
1
 10
-1262.122866
 20
-201.633647
 30
0.0
 10
-1229.198457
 20
-207.471033
 30
0.0
 10
-1198.582866
 20
-219.988346
 30
0.0
 10
-1171.054488
 20
-236.142142
 30
0.0
  0
LWPOLYLINE
  5
113
100
AcDbEntity
  8
Layer_1
 62
1
100
AcDbPolyline
 90
2
 70
0
 10
-1434.110457
 20
-232.410416
 30
0.0
 10
-1433.923370
 20
-232.333030
 30
0.0
  0
SPLINE
  5
114
100
AcDbEntity
  8
Layer_1
 62
1
100
AcDbSpline
 70
8
 71
3
 72
8
 73
4
 74
0
 40
0
 40
0
 40
0
 40
0
 40
1
 40
1
 40
1
 40
1
 10
-1172.012031
 20
-235.594035
 30
0.0
 10
-1139.666740
 20
-253.227657
 30
0.0
 10
-1100.029039
 20
-259.482926
 30
0.0
 10
-1062.247181
 20
-254.738976
 30
0.0
  0
SPLINE
  5
115
100
AcDbEntity
  8
Layer_1
 62
1
100
AcDbSpline
 70
8
 71
3
 72
8
 73
4
 74
0
 40
0
 40
0
 40
0
 40
0
 40
1
 40
1
 40
1
 40
1
 10
-1062.247181
 20
-254.738976
 30
0.0
 10
-1020.596031
 20
-249.440598
 30
0.0
 10
-980.437606
 20
-231.227320
 30
0.0
 10
-950.788063
 20
-202.907027
 30
0.0
  0
SPLINE
  5
116
100
AcDbEntity
  8
Layer_1
 62
1
100
AcDbSpline
 70
8
 71
3
 72
8
 73
4
 74
0
 40
0
 40
0
 40
0
 40
0
 40
1
 40
1
 40
1
 40
1
 10
-950.788063
 20
-202.907027
 30
0.0
 10
-929.054551
 20
-182.128876
 30
0.0
 10
-913.115622
 20
-155.178312
 30
0.0
 10
-907.731213
 20
-127.334948
 30
0.0
  0
LWPOLYLINE
  5
117
100
AcDbEntity
  8
Layer_1
 62
1
100
AcDbPolyline
 90
2
 70
0
 10
-1171.054488
 20
-236.142142
 30
0.0
 10
-1172.012031
 20
-235.594035
 30
0.0
  0
SPLINE
  5
118
100
AcDbEntity
  8
Layer_1
 62
1
100
AcDbSpline
 70
8
 71
3
 72
8
 73
4
 74
0
 40
0
 40
0
 40
0
 40
0
 40
1
 40
1
 40
1
 40
1
 10
-907.702866
 20
-127.207672
 30
0.0
 10
-904.989827
 20
-113.443597
 30
0.0
 10
-904.831370
 20
-98.609244
 30
0.0
 10
-907.365260
 20
-85.202872
 30
0.0
  0
LWPOLYLINE
  5
119
100
AcDbEntity
  8
Layer_1
 62
1
100
AcDbPolyline
 90
2
 70
0
 10
-907.731213
 20
-127.334948
 30
0.0
 10
-907.702866
 20
-127.207672
 30
0.0
  0
SPLINE
  5
11a
100
AcDbEntity
  8
Layer_1
 62
1
100
AcDbSpline
 70
8
 71
3
 72
8
 73
4
 74
0
 40
0
 40
0
 40
0
 40
0
 40
1
 40
1
 40
1
 40
1
 10
-907.393606
 20
-85.064542
 30
0.0
 10
-911.805732
 20
-61.196088
 30
0.0
 10
-925.080945
 20
-38.134205
 30
0.0
 10
-943.618394
 20
-21.351430
 30
0.0
  0
LWPOLYLINE
  5
11b
100
AcDbEntity
  8
Layer_1
 62
1
100
AcDbPolyline
 90
2
 70
0
 10
-907.365260
 20
-85.202872
 30
0.0
 10
-907.393606
 20
-85.064542
 30
0.0
  0
SPLINE
  5
11c
100
AcDbEntity
  8
Layer_1
 62
1
100
AcDbSpline
 70
8
 71
3
 72
8
 73
4
 74
0
 40
0
 40
0
 40
0
 40
0
 40
1
 40
1
 40
1
 40
1
 10
-943.779969
 20
-21.202044
 30
0.0
 10
-966.379181
 20
-0.487106
 30
0.0
 10
-997.518898
 20
12.696860
 30
0.0
 10
-1029.804661
 20
17.132117
 30
0.0
  0
SPLINE
  5
11d
100
AcDbEntity
  8
Layer_1
 62
1
100
AcDbSpline
 70
8
 71
3
 72
8
 73
4
 74
0
 40
0
 40
0
 40
0
 40
0
 40
1
 40
1
 40
1
 40
1
 10
-1029.804661
 20
17.132117
 30
0.0
 10
-1040.044252
 20
18.470409
 30
0.0
 10
-1049.578583
 20
19.150214
 30
0.0
 10
-1058.793449
 20
18.859465
 30
0.0
  0
LWPOLYLINE
  5
11e
100
AcDbEntity
  8
Layer_1
 62
1
100
AcDbPolyline
 90
2
 70
0
 10
-943.618394
 20
-21.351430
 30
0.0
 10
-943.779969
 20
-21.202044
 30
0.0
  0
SPLINE
  5
11f
100
AcDbEntity
  8
Layer_1
 62
1
100
AcDbSpline
 70
8
 71
3
 72
8
 73
4
 74
0
 40
0
 40
0
 40
0
 40
0
 40
1
 40
1
 40
1
 40
1
 10
-1057.592126
 20
18.914740
 30
0.0
 10
-1072.150583
 20
17.952718
 30
0.0
 10
-1087.637102
 20
17.522844
 30
0.0
 10
-1103.743559
 20
18.820630
 30
0.0
  0
SPLINE
  5
120
100
AcDbEntity
  8
Layer_1
 62
1
100
AcDbSpline
 70
8
 71
3
 72
8
 73
4
 74
0
 40
0
 40
0
 40
0
 40
0
 40
1
 40
1
 40
1
 40
1
 10
-1103.743559
 20
18.820630
 30
0.0
 10
-1138.959213
 20
21.407896
 30
0.0
 10
-1174.734425
 20
31.369975
 30
0.0
 10
-1206.272409
 20
51.435666
 30
0.0
  0
LWPOLYLINE
  5
121
100
AcDbEntity
  8
Layer_1
 62
1
100
AcDbPolyline
 90
2
 70
0
 10
-1058.793449
 20
18.859465
 30
0.0
 10
-1057.592126
 20
18.914740
 30
0.0
  0
SPLINE
  5
122
100
AcDbEntity
  8
Layer_1
 62
1
100
AcDbSpline
 70
8
 71
3
 72
8
 73
4
 74
0
 40
0
 40
0
 40
0
 40
0
 40
1
 40
1
 40
1
 40
1
 10
-1206.399969
 20
51.518721
 30
0.0
 10
-1216.171276
 20
57.794967
 30
0.0
 10
-1220.397165
 20
62.497134
 30
0.0
 10
-1221.038079
 20
62.945887
 30
0.0
  0
SPLINE
  5
123
100
AcDbEntity
  8
Layer_1
 62
1
100
AcDbSpline
 70
8
 71
3
 72
8
 73
4
 74
0
 40
0
 40
0
 40
0
 40
0
 40
1
 40
1
 40
1
 40
1
 10
-1221.038079
 20
62.945887
 30
0.0
 10
-1221.370725
 20
63.178224
 30
0.0
 10
-1221.699310
 20
63.416323
 30
0.0
 10
-1222.023685
 20
63.660076
 30
0.0
  0
SPLINE
  5
124
100
AcDbEntity
  8
Layer_1
 62
1
100
AcDbSpline
 70
8
 71
3
 72
8
 73
4
 74
0
 40
0
 40
0
 40
0
 40
0
 40
1
 40
1
 40
1
 40
1
 10
-1222.023685
 20
63.660076
 30
0.0
 10
-1242.769323
 20
79.284387
 30
0.0
 10
-1269.225921
 20
89.246976
 30
0.0
 10
-1296.665575
 20
92.992025
 30
0.0
  0
LWPOLYLINE
  5
125
100
AcDbEntity
  8
Layer_1
 62
1
100
AcDbPolyline
 90
2
 70
0
 10
-1206.272409
 20
51.435666
 30
0.0
 10
-1206.399969
 20
51.518721
 30
0.0
  0
SPLINE
  5
126
100
AcDbEntity
  8
Layer_1
 62
1
100
AcDbSpline
 70
8
 71
3
 72
8
 73
4
 74
0
 40
0
 40
0
 40
0
 40
0
 40
1
 40
1
 40
1
 40
1
 10
-1296.705260
 20
92.997694
 30
0.0
 10
-1305.999780
 20
94.277764
 30
0.0
 10
-1315.529575
 20
94.852205
 30
0.0
 10
-1325.190047
 20
94.769348
 30
0.0
  0
LWPOLYLINE
  5
127
100
AcDbEntity
  8
Layer_1
 62
1
100
AcDbPolyline
 90
2
 70
0
 10
-1296.665575
 20
92.992025
 30
0.0
 10
-1296.705260
 20
92.997694
 30
0.0
  0
LWPOLYLINE
  5
128
100
AcDbEntity
  8
Layer_1
 62
1
100
AcDbPolyline
 90
2
 70
0
 10
-1325.190047
 20
94.769348
 30
0.0
 10
-1325.201102
 20
94.769518
 30
0.0
  0
SPLINE
  5
129
100
AcDbEntity
  8
Layer_1
 62
1
100
AcDbSpline
 70
8
 71
3
 72
8
 73
4
 74
0
 40
0
 40
0
 40
0
 40
0
 40
1
 40
1
 40
1
 40
1
 10
-1423.312951
 20
-272.755843
 30
0.0
 10
-1524.577550
 20
-272.832661
 30
0.0
 10
-1605.887376
 20
-354.009969
 30
0.0
 10
-1605.887376
 20
-454.898438
 30
0.0
  0
SPLINE
  5
12a
100
AcDbEntity
  8
Layer_1
 62
1
100
AcDbSpline
 70
8
 71
3
 72
8
 73
4
 74
0
 40
0
 40
0
 40
0
 40
0
 40
1
 40
1
 40
1
 40
1
 10
-1605.887376
 20
-454.898438
 30
0.0
 10
-1605.887376
 20
-555.537345
 30
0.0
 10
-1524.990557
 20
-636.494967
 30
0.0
 10
-1424.098998
 20
-636.830646
 30
0.0
  0
SPLINE
  5
12b
100
AcDbEntity
  8
Layer_1
 62
1
100
AcDbSpline
 70
8
 71
3
 72
8
 73
4
 74
0
 40
0
 40
0
 40
0
 40
0
 40
1
 40
1
 40
1
 40
1
 10
-1424.098998
 20
-636.830646
 30
0.0
 10
-1423.285739
 20
-636.786992
 30
0.0
 10
-1400.901959
 20
-635.607496
 30
0.0
 10
-1372.311439
 20
-632.318485
 30
0.0
  0
SPLINE
  5
12c
100
AcDbEntity
  8
Layer_1
 62
1
100
AcDbSpline
 70
8
 71
3
 72
8
 73
4
 74
0
 40
0
 40
0
 40
0
 40
0
 40
1
 40
1
 40
1
 40
1
 10
-1372.311439
 20
-632.318485
 30
0.0
 10
-1343.206998
 20
-628.970372
 30
0.0
 10
-1307.924731
 20
-622.693729
 30
0.0
 10
-1291.773203
 20
-616.445575
 30
0.0
  0
SPLINE
  5
12d
100
AcDbEntity
  8
Layer_1
 62
1
100
AcDbSpline
 70
8
 71
3
 72
8
 73
4
 74
0
 40
0
 40
0
 40
0
 40
0
 40
1
 40
1
 40
1
 40
1
 10
-1291.773203
 20
-616.445575
 30
0.0
 10
-1277.471849
 20
-610.913197
 30
0.0
 10
-1263.135912
 20
-601.183077
 30
0.0
 10
-1250.892227
 20
-589.361414
 30
0.0
  0
SPLINE
  5
12e
100
AcDbEntity
  8
Layer_1
 62
1
100
AcDbSpline
 70
8
 71
3
 72
8
 73
4
 74
0
 40
0
 40
0
 40
0
 40
0
 40
1
 40
1
 40
1
 40
1
 10
-1250.892227
 20
-589.361414
 30
0.0
 10
-1249.246431
 20
-587.772425
 30
0.0
 10
-1245.109550
 20
-571.170841
 30
0.0
 10
-1224.322809
 20
-552.200995
 30
0.0
  0
SPLINE
  5
12f
100
AcDbEntity
  8
Layer_1
 62
1
100
AcDbSpline
 70
8
 71
3
 72
8
 73
4
 74
0
 40
0
 40
0
 40
0
 40
0
 40
1
 40
1
 40
1
 40
1
 10
-1224.322809
 20
-552.200995
 30
0.0
 10
-1181.083124
 20
-512.740517
 30
0.0
 10
-1122.977424
 20
-514.765219
 30
0.0
 10
-1082.374809
 20
-506.448028
 30
0.0
  0
SPLINE
  5
130
100
AcDbEntity
  8
Layer_1
 62
1
100
AcDbSpline
 70
8
 71
3
 72
8
 73
4
 74
0
 40
0
 40
0
 40
0
 40
0
 40
1
 40
1
 40
1
 40
1
 10
-1082.374809
 20
-506.448028
 30
0.0
 10
-1062.073361
 20
-502.289433
 30
0.0
 10
-1046.793203
 20
-496.458907
 30
0.0
 10
-1038.747628
 20
-489.750208
 30
0.0
  0
SPLINE
  5
131
100
AcDbEntity
  8
Layer_1
 62
1
100
AcDbSpline
 70
8
 71
3
 72
8
 73
4
 74
0
 40
0
 40
0
 40
0
 40
0
 40
1
 40
1
 40
1
 40
1
 10
-1038.747628
 20
-489.750208
 30
0.0
 10
-1030.719345
 20
-483.055739
 30
0.0
 10
-1025.913770
 20
-476.334624
 30
0.0
 10
-1025.704006
 20
-454.726828
 30
0.0
  0
SPLINE
  5
132
100
AcDbEntity
  8
Layer_1
 62
1
100
AcDbSpline
 70
8
 71
3
 72
8
 73
4
 74
0
 40
0
 40
0
 40
0
 40
0
 40
1
 40
1
 40
1
 40
1
 10
-1025.704006
 20
-454.726828
 30
0.0
 10
-1025.797550
 20
-353.915745
 30
0.0
 10
-1106.970463
 20
-272.826907
 30
0.0
 10
-1208.953928
 20
-272.755843
 30
0.0
  0
SPLINE
  5
133
100
AcDbEntity
  8
Layer_1
 62
1
100
AcDbSpline
 70
8
 71
3
 72
8
 73
4
 74
0
 40
0
 40
0
 40
0
 40
0
 40
1
 40
1
 40
1
 40
1
 10
-1208.953928
 20
-272.755843
 30
0.0
 10
-1209.022053
 20
-272.728388
 30
0.0
 10
-1209.090085
 20
-272.700703
 30
0.0
 10
-1209.158022
 20
-272.672787
 30
0.0
  0
LWPOLYLINE
  5
134
100
AcDbEntity
  8
Layer_1
 62
1
100
AcDbPolyline
 90
2
 70
0
 10
-1209.158589
 20
-272.672787
 30
0.0
 10
-1423.312951
 20
-272.755843
 30
0.0
  0
SPLINE
  5
135
100
AcDbEntity
  8
Layer_1
 62
1
100
AcDbSpline
 70
8
 71
3
 72
8
 73
4
 74
0
 40
0
 40
0
 40
0
 40
0
 40
1
 40
1
 40
1
 40
1
 10
-1296.691937
 20
133.493953
 30
0.0
 10
-1240.342299
 20
92.965380
 30
0.0
 10
-1163.917984
 20
104.271902
 30
0.0
 10
-1099.798866
 20
152.985430
 30
0.0
  0
SPLINE
  5
136
100
AcDbEntity
  8
Layer_1
 62
1
100
AcDbSpline
 70
8
 71
3
 72
8
 73
4
 74
0
 40
0
 40
0
 40
0
 40
0
 40
1
 40
1
 40
1
 40
1
 10
-1099.798866
 20
152.985430
 30
0.0
 10
-1021.994362
 20
212.096523
 30
0.0
 10
-1006.545827
 20
323.730850
 30
0.0
 10
-1065.293858
 20
402.327439
 30
0.0
  0
SPLINE
  5
137
100
AcDbEntity
  8
Layer_1
 62
1
100
AcDbSpline
 70
8
 71
3
 72
8
 73
4
 74
0
 40
0
 40
0
 40
0
 40
0
 40
1
 40
1
 40
1
 40
1
 10
-1065.293858
 20
402.327439
 30
0.0
 10
-1098.227906
 20
446.388746
 30
0.0
 10
-1147.488378
 20
470.713550
 30
0.0
 10
-1198.127622
 20
473.168948
 30
0.0
  0
SPLINE
  5
138
100
AcDbEntity
  8
Layer_1
 62
1
100
AcDbSpline
 70
8
 71
3
 72
8
 73
4
 74
0
 40
0
 40
0
 40
0
 40
0
 40
1
 40
1
 40
1
 40
1
 10
-1198.127622
 20
473.168948
 30
0.0
 10
-1198.277858
 20
473.174617
 30
0.0
 10
-1198.432063
 20
473.183121
 30
0.0
 10
-1198.485354
 20
473.199846
 30
0.0
  0
SPLINE
  5
139
100
AcDbEntity
  8
Layer_1
 62
1
100
AcDbSpline
 70
8
 71
3
 72
8
 73
4
 74
0
 40
0
 40
0
 40
0
 40
0
 40
1
 40
1
 40
1
 40
1
 10
-1198.485354
 20
473.199846
 30
0.0
 10
-1216.331717
 20
474.224202
 30
0.0
 10
-1233.705260
 20
481.430580
 30
0.0
 10
-1246.761921
 20
491.857058
 30
0.0
  0
SPLINE
  5
13a
100
AcDbEntity
  8
Layer_1
 62
1
100
AcDbSpline
 70
8
 71
3
 72
8
 73
4
 74
0
 40
0
 40
0
 40
0
 40
0
 40
1
 40
1
 40
1
 40
1
 10
-1246.761921
 20
491.857058
 30
0.0
 10
-1311.706772
 20
547.782151
 30
0.0
 10
-1438.906961
 20
533.683049
 30
0.0
 10
-1545.020787
 20
453.064450
 30
0.0
  0
SPLINE
  5
13b
100
AcDbEntity
  8
Layer_1
 62
1
100
AcDbSpline
 70
8
 71
3
 72
8
 73
4
 74
0
 40
0
 40
0
 40
0
 40
0
 40
1
 40
1
 40
1
 40
1
 10
-1545.020787
 20
453.064450
 30
0.0
 10
-1661.759433
 20
364.373830
 30
0.0
 10
-1708.770614
 20
228.760157
 30
0.0
 10
-1650.022866
 20
150.163483
 30
0.0
  0
SPLINE
  5
13c
100
AcDbEntity
  8
Layer_1
 62
1
100
AcDbSpline
 70
8
 71
3
 72
8
 73
4
 74
0
 40
0
 40
0
 40
0
 40
0
 40
1
 40
1
 40
1
 40
1
 10
-1650.022866
 20
150.163483
 30
0.0
 10
-1598.835685
 20
81.682016
 30
0.0
 10
-1484.248252
 20
79.080945
 30
0.0
 10
-1381.924063
 20
136.295943
 30
0.0
  0
SPLINE
  5
13d
100
AcDbEntity
  8
Layer_1
 62
1
100
AcDbSpline
 70
8
 71
3
 72
8
 73
4
 74
0
 40
0
 40
0
 40
0
 40
0
 40
1
 40
1
 40
1
 40
1
 10
-1381.924063
 20
136.295943
 30
0.0
 10
-1356.985701
 20
150.744841
 30
0.0
 10
-1322.249386
 20
149.453178
 30
0.0
 10
-1296.691937
 20
133.493953
 30
0.0
  0
LWPOLYLINE
  5
13e
100
AcDbEntity
  8
Layer_1
 62
1
100
AcDbPolyline
 90
2
 70
0
 10
-1209.158022
 20
-272.672787
 30
0.0
 10
-1209.158589
 20
-272.672787
 30
0.0
  0
SPLINE
  5
13f
100
AcDbEntity
  8
Layer_1
 62
1
100
AcDbSpline
 70
8
 71
3
 72
8
 73
4
 74
0
 40
0
 40
0
 40
0
 40
0
 40
1
 40
1
 40
1
 40
1
 10
-1343.021953
 20
491.431635
 30
0.0
 10
-1395.576850
 20
493.482869
 30
0.0
 10
-1463.688283
 20
472.144564
 30
0.0
 10
-1524.444661
 20
425.985647
 30
0.0
  0
SPLINE
  5
140
100
AcDbEntity
  8
Layer_1
 62
1
100
AcDbSpline
 70
8
 71
3
 72
8
 73
4
 74
0
 40
0
 40
0
 40
0
 40
0
 40
1
 40
1
 40
1
 40
1
 10
-1524.444661
 20
425.985647
 30
0.0
 10
-1577.916567
 20
385.361178
 30
0.0
 10
-1614.790488
 20
334.003918
 30
0.0
 10
-1631.192315
 20
286.689373
 30
0.0
  0
SPLINE
  5
141
100
AcDbEntity
  8
Layer_1
 62
1
100
AcDbSpline
 70
8
 71
3
 72
8
 73
4
 74
0
 40
0
 40
0
 40
0
 40
0
 40
1
 40
1
 40
1
 40
1
 10
-1631.192315
 20
286.689373
 30
0.0
 10
-1647.594425
 20
239.374828
 30
0.0
 10
-1643.936315
 20
198.825052
 30
0.0
 10
-1622.782488
 20
170.524261
 30
0.0
  0
SPLINE
  5
142
100
AcDbEntity
  8
Layer_1
 62
1
100
AcDbSpline
 70
8
 71
3
 72
8
 73
4
 74
0
 40
0
 40
0
 40
0
 40
0
 40
1
 40
1
 40
1
 40
1
 10
-1622.782488
 20
170.524261
 30
0.0
 10
-1604.351055
 20
145.865509
 30
0.0
 10
-1573.969039
 20
131.802151
 30
0.0
 10
-1533.690709
 20
130.069672
 30
0.0
  0
SPLINE
  5
143
100
AcDbEntity
  8
Layer_1
 62
1
100
AcDbSpline
 70
8
 71
3
 72
8
 73
4
 74
0
 40
0
 40
0
 40
0
 40
0
 40
1
 40
1
 40
1
 40
1
 10
-1533.690709
 20
130.069672
 30
0.0
 10
-1493.412094
 20
128.337194
 30
0.0
 10
-1444.775528
 20
140.117386
 30
0.0
 10
-1398.524598
 20
165.978879
 30
0.0
  0
LWPOLYLINE
  5
144
100
AcDbEntity
  8
Layer_1
 62
1
100
AcDbPolyline
 90
1
 70
1
 10
-1296.691937
 20
133.493953
 30
0.0
  0
SPLINE
  5
145
100
AcDbEntity
  8
Layer_1
 62
1
100
AcDbSpline
 70
8
 71
3
 72
8
 73
4
 74
0
 40
0
 40
0
 40
0
 40
0
 40
1
 40
1
 40
1
 40
1
 10
-1398.973039
 20
165.724044
 30
0.0
 10
-1361.421071
 20
187.481083
 30
0.0
 10
-1315.279276
 20
185.196954
 30
0.0
 10
-1278.677764
 20
162.341291
 30
0.0
  0
SPLINE
  5
146
100
AcDbEntity
  8
Layer_1
 62
1
100
AcDbSpline
 70
8
 71
3
 72
8
 73
4
 74
0
 40
0
 40
0
 40
0
 40
0
 40
1
 40
1
 40
1
 40
1
 10
-1278.677764
 20
162.341291
 30
0.0
 10
-1278.049949
 20
161.949918
 30
0.0
 10
-1277.435071
 20
161.538165
 30
0.0
 10
-1276.834110
 20
161.106690
 30
0.0
  0
SPLINE
  5
147
100
AcDbEntity
  8
Layer_1
 62
1
100
AcDbSpline
 70
8
 71
3
 72
8
 73
4
 74
0
 40
0
 40
0
 40
0
 40
0
 40
1
 40
1
 40
1
 40
1
 10
-1276.834110
 20
161.106690
 30
0.0
 10
-1234.750677
 20
130.838910
 30
0.0
 10
-1176.146929
 20
137.691411
 30
0.0
 10
-1120.374992
 20
180.063383
 30
0.0
  0
SPLINE
  5
148
100
AcDbEntity
  8
Layer_1
 62
1
100
AcDbSpline
 70
8
 71
3
 72
8
 73
4
 74
0
 40
0
 40
0
 40
0
 40
0
 40
1
 40
1
 40
1
 40
1
 10
-1120.374992
 20
180.063383
 30
0.0
 10
-1057.266709
 20
228.009061
 30
0.0
 10
-1044.741827
 20
318.028564
 30
0.0
 10
-1092.532252
 20
381.965443
 30
0.0
  0
SPLINE
  5
149
100
AcDbEntity
  8
Layer_1
 62
1
100
AcDbSpline
 70
8
 71
3
 72
8
 73
4
 74
0
 40
0
 40
0
 40
0
 40
0
 40
1
 40
1
 40
1
 40
1
 10
-1092.532252
 20
381.965443
 30
0.0
 10
-1119.323055
 20
417.807893
 30
0.0
 10
-1158.918803
 20
437.220000
 30
0.0
 10
-1199.772567
 20
439.200935
 30
0.0
  0
LWPOLYLINE
  5
14a
100
AcDbEntity
  8
Layer_1
 62
1
100
AcDbPolyline
 90
2
 70
0
 10
-1398.524598
 20
165.978879
 30
0.0
 10
-1398.973039
 20
165.724044
 30
0.0
  0
SPLINE
  5
14b
100
AcDbEntity
  8
Layer_1
 62
1
100
AcDbSpline
 70
8
 71
3
 72
8
 73
4
 74
0
 40
0
 40
0
 40
0
 40
0
 40
1
 40
1
 40
1
 40
1
 10
-1199.412850
 20
439.183928
 30
0.0
 10
-1199.662299
 20
439.192431
 30
0.0
 10
-1200.098835
 20
439.225030
 30
0.0
 10
-1200.431339
 20
439.244872
 30
0.0
  0
LWPOLYLINE
  5
14c
100
AcDbEntity
  8
Layer_1
 62
1
100
AcDbPolyline
 90
2
 70
0
 10
-1199.772567
 20
439.200935
 30
0.0
 10
-1199.412850
 20
439.183928
 30
0.0
  0
SPLINE
  5
14d
100
AcDbEntity
  8
Layer_1
 62
1
100
AcDbSpline
 70
8
 71
3
 72
8
 73
4
 74
0
 40
0
 40
0
 40
0
 40
0
 40
1
 40
1
 40
1
 40
1
 10
-1200.459685
 20
439.250542
 30
0.0
 10
-1200.737480
 20
439.267550
 30
0.0
 10
-1200.883181
 20
439.264715
 30
0.0
 10
-1201.295622
 20
439.300431
 30
0.0
  0
SPLINE
  5
14e
100
AcDbEntity
  8
Layer_1
 62
1
100
AcDbSpline
 70
8
 71
3
 72
8
 73
4
 74
0
 40
0
 40
0
 40
0
 40
0
 40
1
 40
1
 40
1
 40
1
 10
-1201.295622
 20
439.300431
 30
0.0
 10
-1201.434520
 20
439.311770
 30
0.0
 10
-1202.296819
 20
439.534857
 30
0.0
 10
-1202.408504
 20
439.521817
 30
0.0
  0
SPLINE
  5
14f
100
AcDbEntity
  8
Layer_1
 62
1
100
AcDbSpline
 70
8
 71
3
 72
8
 73
4
 74
0
 40
0
 40
0
 40
0
 40
0
 40
1
 40
1
 40
1
 40
1
 10
-1202.408504
 20
439.521817
 30
0.0
 10
-1227.302929
 20
441.378482
 30
0.0
 10
-1249.889669
 20
450.835115
 30
0.0
 10
-1267.981795
 20
465.282765
 30
0.0
  0
SPLINE
  5
150
100
AcDbEntity
  8
Layer_1
 62
1
100
AcDbSpline
 70
8
 71
3
 72
8
 73
4
 74
0
 40
0
 40
0
 40
0
 40
0
 40
1
 40
1
 40
1
 40
1
 10
-1267.981795
 20
465.282765
 30
0.0
 10
-1268.309678
 20
465.544359
 30
0.0
 10
-1268.632694
 20
465.811995
 30
0.0
 10
-1268.950677
 20
466.085537
 30
0.0
  0
SPLINE
  5
151
100
AcDbEntity
  8
Layer_1
 62
1
100
AcDbSpline
 70
8
 71
3
 72
8
 73
4
 74
0
 40
0
 40
0
 40
0
 40
0
 40
1
 40
1
 40
1
 40
1
 10
-1268.950677
 20
466.085537
 30
0.0
 10
-1286.261291
 20
480.991861
 30
0.0
 10
-1311.488220
 20
490.200463
 30
0.0
 10
-1343.022520
 20
491.431266
 30
0.0
  0
LWPOLYLINE
  5
152
100
AcDbEntity
  8
Layer_1
 62
1
100
AcDbPolyline
 90
2
 70
0
 10
-1200.431339
 20
439.244872
 30
0.0
 10
-1200.459685
 20
439.250542
 30
0.0
  0
LWPOLYLINE
  5
153
100
AcDbEntity
  8
Layer_1
 62
1
100
AcDbPolyline
 90
2
 70
0
 10
-1343.022520
 20
491.431266
 30
0.0
 10
-1343.021953
 20
491.431635
 30
0.0
  0
LWPOLYLINE
  5
154
100
AcDbEntity
  8
Layer_1
 62
7
100
AcDbPolyline
 90
4
 70
1
 10
-965.566148
 20
156.522271
 30
0.0
 10
-896.387658
 20
156.522271
 30
0.0
 10
-896.387658
 20
87.343781
 30
0.0
 10
-965.566148
 20
87.343781
 30
0.0
  0
ENDSEC
  0
SECTION
  2
OBJECTS
  0
DICTIONARY
  5
C
330
0
100
AcDbDictionary
  3
ACAD_GROUP
350
D
  3
ACAD_MLINESTYLE
350
17
  0
DICTIONARY
  5
D
330
C
100
AcDbDictionary
  0
DICTIONARY
  5
1A
330
C
100
AcDbDictionary
  0
DICTIONARY
  5
17
330
C
100
AcDbDictionary
  3
STANDARD
350
18
  0
DICTIONARY
  5
19
330
C
100
AcDbDictionary
  0
ENDSEC
  0
EOF
