  0
SECTION
  2
HEADER
  9
$ACADVER
  1
AC1014
  9
$HANDSEED
  5
FFFF
  9
$MEASUREMENT
 70
     1
  0
ENDSEC
  0
SECTION
  2
TABLES
  0
TABLE
  2
VPORT
  5
8
330
0
100
AcDbSymbolTable
 70
     4
  0
VPORT
  5
2E
330
8
100
AcDbSymbolTableRecord
100
AcDbViewportTableRecord
  2
*ACTIVE
 70
     0
 10
0.0
 20
0.0
 11
1.0
 21
1.0
 12
210.0
 22
148.5
 13
0.0
 23
0.0
 14
10.0
 24
10.0
 15
10.0
 25
10.0
 16
0.0
 26
0.0
 36
1.0
 17
0.0
 27
0.0
 37
0.0
 40
341.0
 41
1.24
 42
50.0
 43
0.0
 44
0.0
 50
0.0
 51
0.0
 71
     0
 72
   100
 73
     1
 74
     3
 75
     0
 76
     0
 77
     0
 78
     0
  0
ENDTAB
  0
TABLE
  2
LTYPE
  5
5
330
0
100
AcDbSymbolTable
 70
     1
  0
LTYPE
  5
14
330
5
100
AcDbSymbolTableRecord
100
AcDbLinetypeTableRecord
  2
BYBLOCK
 70
     0
  3

 72
    65
 73
     0
 40
0.0
  0
LTYPE
  5
15
330
5
100
AcDbSymbolTableRecord
100
AcDbLinetypeTableRecord
  2
BYLAYER
 70
     0
  3

 72
    65
 73
     0
 40
0.0
  0
LTYPE
  5
16
330
5
100
AcDbSymbolTableRecord
100
AcDbLinetypeTableRecord
  2
CONTINUOUS
 70
     0
  3
Solid line
 72
    65
 73
     0
 40
0.0
  0
ENDTAB
  0
TABLE
  2
LAYER
  5
2
100
AcDbSymbolTable
 70
2
  0
LAYER
  5
50
100
AcDbSymbolTableRecord
100
AcDbLayerTableRecord
  2
0
 70
0
  6
CONTINUOUS
  0
LAYER
  5
51
100
AcDbSymbolTableRecord
100
AcDbLayerTableRecord
  2
Layer_1
 70
0
  6
CONTINUOUS
  0
ENDTAB
  0
TABLE
  2
STYLE
  5
3
330
0
100
AcDbSymbolTable
 70
     1
  0
STYLE
  5
11
330
3
100
AcDbSymbolTableRecord
100
AcDbTextStyleTableRecord
  2
STANDARD
 70
     0
 40
0.0
 41
1.0
 50
0.0
 71
     0
 42
2.5
  3
txt
  4

  0
ENDTAB
  0
TABLE
  2
VIEW
  5
6
330
0
100
AcDbSymbolTable
 70
     0
  0
ENDTAB
  0
TABLE
  2
UCS
  5
7
330
0
100
AcDbSymbolTable
 70
     0
  0
ENDTAB
  0
TABLE
  2
APPID
  5
9
330
0
100
AcDbSymbolTable
 70
     2
  0
APPID
  5
12
330
9
100
AcDbSymbolTableRecord
100
AcDbRegAppTableRecord
  2
ACAD
 70
     0
  0
ENDTAB
  0
TABLE
  2
DIMSTYLE
  5
A
330
0
100
AcDbSymbolTable
 70
     1
  0
DIMSTYLE
105
27
330
A
100
AcDbSymbolTableRecord
100
AcDbDimStyleTableRecord
  2
ISO-25
 70
     0
  3

  4

  5

  6

  7

 40
1.0
 41
2.5
 42
0.625
 43
3.75
 44
1.25
 45
0.0
 46
0.0
 47
0.0
 48
0.0
140
2.5
141
2.5
142
0.0
143
0.03937007874016
144
1.0
145
0.0
146
1.0
147
0.625
 71
     0
 72
     0
 73
     0
 74
     0
 75
     0
 76
     0
 77
     1
 78
     8
170
     0
171
     3
172
     1
173
     0
174
     0
175
     0
176
     0
177
     0
178
     0
270
     2
271
     2
272
     2
273
     2
274
     3
340
11
275
     0
280
     0
281
     0
282
     0
283
     0
284
     8
285
     0
286
     0
287
     3
288
     0
  0
ENDTAB
  0
TABLE
  2
BLOCK_RECORD
  5
1
330
0
100
AcDbSymbolTable
 70
     1
  0
BLOCK_RECORD
  5
1F
330
1
100
AcDbSymbolTableRecord
100
AcDbBlockTableRecord
  2
*MODEL_SPACE
  0
BLOCK_RECORD
  5
1B
330
1
100
AcDbSymbolTableRecord
100
AcDbBlockTableRecord
  2
*PAPER_SPACE
  0
ENDTAB
  0
ENDSEC
  0
SECTION
  2
BLOCKS
  0
BLOCK
  5
20
330
1F
100
AcDbEntity
  8
0
100
AcDbBlockBegin
  2
*MODEL_SPACE
 70
     0
 10
0.0
 20
0.0
 30
0.0
  3
*MODEL_SPACE
  1

  0
ENDBLK
  5
21
330
1F
100
AcDbEntity
  8
0
100
AcDbBlockEnd
  0
BLOCK
  5
1C
330
1B
100
AcDbEntity
 67
     1
  8
0
100
AcDbBlockBegin
  2
*PAPER_SPACE
  1

  0
ENDBLK
  5
1D
330
1B
100
AcDbEntity
 67
     1
  8
0
100
AcDbBlockEnd
  0
ENDSEC
  0
SECTION
  2
ENTITIES
  0
LWPOLYLINE
  5
100
100
AcDbEntity
  8
Layer_1
 62
7
100
AcDbPolyline
 90
4
 70
1
 10
93.430471
 20
761.661422
 30
0.0
 10
343.255419
 20
761.661422
 30
0.0
 10
343.255419
 20
511.836474
 30
0.0
 10
93.430471
 20
511.836474
 30
0.0
  0
SPLINE
  5
101
100
AcDbEntity
  8
Layer_1
 62
1
100
AcDbSpline
 70
8
 71
3
 72
8
 73
4
 74
0
 40
0
 40
0
 40
0
 40
0
 40
1
 40
1
 40
1
 40
1
 10
113.517099
 20
723.161481
 30
0.0
 10
111.301973
 20
723.161481
 30
0.0
 10
109.304962
 20
721.827121
 30
0.0
 10
108.457270
 20
719.780611
 30
0.0
  0
SPLINE
  5
102
100
AcDbEntity
  8
Layer_1
 62
1
100
AcDbSpline
 70
8
 71
3
 72
8
 73
4
 74
0
 40
0
 40
0
 40
0
 40
0
 40
1
 40
1
 40
1
 40
1
 10
108.457270
 20
719.780611
 30
0.0
 10
107.609578
 20
717.734101
 30
0.0
 10
108.078142
 20
715.378465
 30
0.0
 10
109.644473
 20
713.812134
 30
0.0
  0
SPLINE
  5
103
100
AcDbEntity
  8
Layer_1
 62
1
100
AcDbSpline
 70
8
 71
3
 72
8
 73
4
 74
0
 40
0
 40
0
 40
0
 40
0
 40
1
 40
1
 40
1
 40
1
 10
109.644473
 20
713.812134
 30
0.0
 10
111.210804
 20
712.245803
 30
0.0
 10
113.566439
 20
711.777238
 30
0.0
 10
115.612949
 20
712.624930
 30
0.0
  0
SPLINE
  5
104
100
AcDbEntity
  8
Layer_1
 62
1
100
AcDbSpline
 70
8
 71
3
 72
8
 73
4
 74
0
 40
0
 40
0
 40
0
 40
0
 40
1
 40
1
 40
1
 40
1
 10
115.612949
 20
712.624930
 30
0.0
 10
117.659459
 20
713.472623
 30
0.0
 10
118.993819
 20
715.469634
 30
0.0
 10
118.993819
 20
717.684761
 30
0.0
  0
SPLINE
  5
105
100
AcDbEntity
  8
Layer_1
 62
1
100
AcDbSpline
 70
8
 71
3
 72
8
 73
4
 74
0
 40
0
 40
0
 40
0
 40
0
 40
1
 40
1
 40
1
 40
1
 10
118.993819
 20
717.684761
 30
0.0
 10
118.993819
 20
720.709470
 30
0.0
 10
116.541808
 20
723.161481
 30
0.0
 10
113.517099
 20
723.161481
 30
0.0
  0
LWPOLYLINE
  5
106
100
AcDbEntity
  8
Layer_1
 62
1
100
AcDbPolyline
 90
4
 70
1
 10
71.130895
 20
771.024416
 30
0.0
 10
155.903318
 20
771.024416
 30
0.0
 10
155.903318
 20
686.251990
 30
0.0
 10
71.130895
 20
686.251990
 30
0.0
  0
SPLINE
  5
107
100
AcDbEntity
  8
Layer_1
 62
1
100
AcDbSpline
 70
8
 71
3
 72
8
 73
4
 74
0
 40
0
 40
0
 40
0
 40
0
 40
1
 40
1
 40
1
 40
1
 10
113.517099
 20
745.068360
 30
0.0
 10
111.301973
 20
745.068360
 30
0.0
 10
109.304962
 20
743.734000
 30
0.0
 10
108.457270
 20
741.687490
 30
0.0
  0
SPLINE
  5
108
100
AcDbEntity
  8
Layer_1
 62
1
100
AcDbSpline
 70
8
 71
3
 72
8
 73
4
 74
0
 40
0
 40
0
 40
0
 40
0
 40
1
 40
1
 40
1
 40
1
 10
108.457270
 20
741.687490
 30
0.0
 10
107.609578
 20
739.640979
 30
0.0
 10
108.078142
 20
737.285344
 30
0.0
 10
109.644473
 20
735.719013
 30
0.0
  0
SPLINE
  5
109
100
AcDbEntity
  8
Layer_1
 62
1
100
AcDbSpline
 70
8
 71
3
 72
8
 73
4
 74
0
 40
0
 40
0
 40
0
 40
0
 40
1
 40
1
 40
1
 40
1
 10
109.644473
 20
735.719013
 30
0.0
 10
111.210804
 20
734.152682
 30
0.0
 10
113.566439
 20
733.684117
 30
0.0
 10
115.612949
 20
734.531809
 30
0.0
  0
SPLINE
  5
10a
100
AcDbEntity
  8
Layer_1
 62
1
100
AcDbSpline
 70
8
 71
3
 72
8
 73
4
 74
0
 40
0
 40
0
 40
0
 40
0
 40
1
 40
1
 40
1
 40
1
 10
115.612949
 20
734.531809
 30
0.0
 10
117.659459
 20
735.379501
 30
0.0
 10
118.993819
 20
737.376513
 30
0.0
 10
118.993819
 20
739.591639
 30
0.0
  0
SPLINE
  5
10b
100
AcDbEntity
  8
Layer_1
 62
1
100
AcDbSpline
 70
8
 71
3
 72
8
 73
4
 74
0
 40
0
 40
0
 40
0
 40
0
 40
1
 40
1
 40
1
 40
1
 10
118.993819
 20
739.591639
 30
0.0
 10
118.993819
 20
742.616349
 30
0.0
 10
116.541808
 20
745.068360
 30
0.0
 10
113.517099
 20
745.068360
 30
0.0
  0
LWPOLYLINE
  5
10c
100
AcDbEntity
  8
Layer_1
 62
1
100
AcDbPolyline
 90
1
 70
1
 10
113.517099
 20
723.161481
 30
0.0
  0
LWPOLYLINE
  5
10d
100
AcDbEntity
  8
Layer_1
 62
1
100
AcDbPolyline
 90
1
 70
1
 10
113.517099
 20
745.068360
 30
0.0
  0
SPLINE
  5
10e
100
AcDbEntity
  8
Layer_1
 62
1
100
AcDbSpline
 70
8
 71
3
 72
8
 73
4
 74
0
 40
0
 40
0
 40
0
 40
0
 40
1
 40
1
 40
1
 40
1
 10
113.555920
 20
628.476181
 30
0.0
 10
111.340793
 20
628.476181
 30
0.0
 10
109.343782
 20
627.141820
 30
0.0
 10
108.496090
 20
625.095310
 30
0.0
  0
SPLINE
  5
10f
100
AcDbEntity
  8
Layer_1
 62
1
100
AcDbSpline
 70
8
 71
3
 72
8
 73
4
 74
0
 40
0
 40
0
 40
0
 40
0
 40
1
 40
1
 40
1
 40
1
 10
108.496090
 20
625.095310
 30
0.0
 10
107.648398
 20
623.048800
 30
0.0
 10
108.116963
 20
620.693165
 30
0.0
 10
109.683294
 20
619.126833
 30
0.0
  0
SPLINE
  5
110
100
AcDbEntity
  8
Layer_1
 62
1
100
AcDbSpline
 70
8
 71
3
 72
8
 73
4
 74
0
 40
0
 40
0
 40
0
 40
0
 40
1
 40
1
 40
1
 40
1
 10
109.683294
 20
619.126833
 30
0.0
 10
111.249625
 20
617.560502
 30
0.0
 10
113.605260
 20
617.091937
 30
0.0
 10
115.651770
 20
617.939630
 30
0.0
  0
SPLINE
  5
111
100
AcDbEntity
  8
Layer_1
 62
1
100
AcDbSpline
 70
8
 71
3
 72
8
 73
4
 74
0
 40
0
 40
0
 40
0
 40
0
 40
1
 40
1
 40
1
 40
1
 10
115.651770
 20
617.939630
 30
0.0
 10
117.698280
 20
618.787322
 30
0.0
 10
119.032640
 20
620.784333
 30
0.0
 10
119.032640
 20
622.999460
 30
0.0
  0
SPLINE
  5
112
100
AcDbEntity
  8
Layer_1
 62
1
100
AcDbSpline
 70
8
 71
3
 72
8
 73
4
 74
0
 40
0
 40
0
 40
0
 40
0
 40
1
 40
1
 40
1
 40
1
 10
119.032640
 20
622.999460
 30
0.0
 10
119.032640
 20
624.451977
 30
0.0
 10
118.455630
 20
625.845002
 30
0.0
 10
117.428546
 20
626.872086
 30
0.0
  0
SPLINE
  5
113
100
AcDbEntity
  8
Layer_1
 62
1
100
AcDbSpline
 70
8
 71
3
 72
8
 73
4
 74
0
 40
0
 40
0
 40
0
 40
0
 40
1
 40
1
 40
1
 40
1
 10
117.428546
 20
626.872086
 30
0.0
 10
116.401461
 20
627.899171
 30
0.0
 10
115.008436
 20
628.476181
 30
0.0
 10
113.555920
 20
628.476181
 30
0.0
  0
LWPOLYLINE
  5
114
100
AcDbEntity
  8
Layer_1
 62
1
100
AcDbPolyline
 90
4
 70
1
 10
375.342066
 20
304.386038
 30
0.0
 10
447.116051
 20
304.386038
 30
0.0
 10
447.116051
 20
232.612053
 30
0.0
 10
375.342066
 20
232.612053
 30
0.0
  0
SPLINE
  5
115
100
AcDbEntity
  8
Layer_1
 62
1
100
AcDbSpline
 70
8
 71
3
 72
8
 73
4
 74
0
 40
0
 40
0
 40
0
 40
0
 40
1
 40
1
 40
1
 40
1
 10
113.555920
 20
584.662401
 30
0.0
 10
111.340793
 20
584.662401
 30
0.0
 10
109.343782
 20
583.328040
 30
0.0
 10
108.496090
 20
581.281530
 30
0.0
  0
SPLINE
  5
116
100
AcDbEntity
  8
Layer_1
 62
1
100
AcDbSpline
 70
8
 71
3
 72
8
 73
4
 74
0
 40
0
 40
0
 40
0
 40
0
 40
1
 40
1
 40
1
 40
1
 10
108.496090
 20
581.281530
 30
0.0
 10
107.648398
 20
579.235020
 30
0.0
 10
108.116963
 20
576.879384
 30
0.0
 10
109.683294
 20
575.313053
 30
0.0
  0
SPLINE
  5
117
100
AcDbEntity
  8
Layer_1
 62
1
100
AcDbSpline
 70
8
 71
3
 72
8
 73
4
 74
0
 40
0
 40
0
 40
0
 40
0
 40
1
 40
1
 40
1
 40
1
 10
109.683294
 20
575.313053
 30
0.0
 10
111.249625
 20
573.746722
 30
0.0
 10
113.605260
 20
573.278157
 30
0.0
 10
115.651770
 20
574.125849
 30
0.0
  0
SPLINE
  5
118
100
AcDbEntity
  8
Layer_1
 62
1
100
AcDbSpline
 70
8
 71
3
 72
8
 73
4
 74
0
 40
0
 40
0
 40
0
 40
0
 40
1
 40
1
 40
1
 40
1
 10
115.651770
 20
574.125849
 30
0.0
 10
117.698280
 20
574.973542
 30
0.0
 10
119.032640
 20
576.970553
 30
0.0
 10
119.032640
 20
579.185680
 30
0.0
  0
SPLINE
  5
119
100
AcDbEntity
  8
Layer_1
 62
1
100
AcDbSpline
 70
8
 71
3
 72
8
 73
4
 74
0
 40
0
 40
0
 40
0
 40
0
 40
1
 40
1
 40
1
 40
1
 10
119.032640
 20
579.185680
 30
0.0
 10
119.032640
 20
580.638196
 30
0.0
 10
118.455630
 20
582.031222
 30
0.0
 10
117.428546
 20
583.058306
 30
0.0
  0
SPLINE
  5
11a
100
AcDbEntity
  8
Layer_1
 62
1
100
AcDbSpline
 70
8
 71
3
 72
8
 73
4
 74
0
 40
0
 40
0
 40
0
 40
0
 40
1
 40
1
 40
1
 40
1
 10
117.428546
 20
583.058306
 30
0.0
 10
116.401461
 20
584.085391
 30
0.0
 10
115.008436
 20
584.662401
 30
0.0
 10
113.555920
 20
584.662401
 30
0.0
  0
LWPOLYLINE
  5
11b
100
AcDbEntity
  8
Layer_1
 62
1
100
AcDbPolyline
 90
1
 70
1
 10
113.555920
 20
628.476181
 30
0.0
  0
LWPOLYLINE
  5
11c
100
AcDbEntity
  8
Layer_1
 62
1
100
AcDbPolyline
 90
1
 70
1
 10
113.555920
 20
584.662401
 30
0.0
  0
SPLINE
  5
11d
100
AcDbEntity
  8
Layer_1
 62
1
100
AcDbSpline
 70
8
 71
3
 72
8
 73
4
 74
0
 40
0
 40
0
 40
0
 40
0
 40
1
 40
1
 40
1
 40
1
 10
113.527806
 20
444.603814
 30
0.0
 10
111.312679
 20
444.603814
 30
0.0
 10
109.315668
 20
443.269454
 30
0.0
 10
108.467976
 20
441.222943
 30
0.0
  0
SPLINE
  5
11e
100
AcDbEntity
  8
Layer_1
 62
1
100
AcDbSpline
 70
8
 71
3
 72
8
 73
4
 74
0
 40
0
 40
0
 40
0
 40
0
 40
1
 40
1
 40
1
 40
1
 10
108.467976
 20
441.222943
 30
0.0
 10
107.620284
 20
439.176433
 30
0.0
 10
108.088849
 20
436.820798
 30
0.0
 10
109.655180
 20
435.254466
 30
0.0
  0
SPLINE
  5
11f
100
AcDbEntity
  8
Layer_1
 62
1
100
AcDbSpline
 70
8
 71
3
 72
8
 73
4
 74
0
 40
0
 40
0
 40
0
 40
0
 40
1
 40
1
 40
1
 40
1
 10
109.655180
 20
435.254466
 30
0.0
 10
111.221511
 20
433.688135
 30
0.0
 10
113.577146
 20
433.219570
 30
0.0
 10
115.623656
 20
434.067263
 30
0.0
  0
SPLINE
  5
120
100
AcDbEntity
  8
Layer_1
 62
1
100
AcDbSpline
 70
8
 71
3
 72
8
 73
4
 74
0
 40
0
 40
0
 40
0
 40
0
 40
1
 40
1
 40
1
 40
1
 10
115.623656
 20
434.067263
 30
0.0
 10
117.670166
 20
434.914955
 30
0.0
 10
119.004526
 20
436.911966
 30
0.0
 10
119.004526
 20
439.127093
 30
0.0
  0
SPLINE
  5
121
100
AcDbEntity
  8
Layer_1
 62
1
100
AcDbSpline
 70
8
 71
3
 72
8
 73
4
 74
0
 40
0
 40
0
 40
0
 40
0
 40
1
 40
1
 40
1
 40
1
 10
119.004526
 20
439.127093
 30
0.0
 10
119.004526
 20
440.579610
 30
0.0
 10
118.427516
 20
441.972635
 30
0.0
 10
117.400431
 20
442.999719
 30
0.0
  0
SPLINE
  5
122
100
AcDbEntity
  8
Layer_1
 62
1
100
AcDbSpline
 70
8
 71
3
 72
8
 73
4
 74
0
 40
0
 40
0
 40
0
 40
0
 40
1
 40
1
 40
1
 40
1
 10
117.400431
 20
442.999719
 30
0.0
 10
116.373347
 20
444.026804
 30
0.0
 10
114.980322
 20
444.603814
 30
0.0
 10
113.527806
 20
444.603814
 30
0.0
  0
LWPOLYLINE
  5
123
100
AcDbEntity
  8
Layer_1
 62
1
100
AcDbPolyline
 90
4
 70
1
 10
71.208530
 20
671.786413
 30
0.0
 10
155.903312
 20
671.786413
 30
0.0
 10
155.903312
 20
530.398718
 30
0.0
 10
71.208530
 20
530.398718
 30
0.0
  0
SPLINE
  5
124
100
AcDbEntity
  8
Layer_1
 62
1
100
AcDbSpline
 70
8
 71
3
 72
8
 73
4
 74
0
 40
0
 40
0
 40
0
 40
0
 40
1
 40
1
 40
1
 40
1
 10
113.527806
 20
399.634598
 30
0.0
 10
111.312679
 20
399.634598
 30
0.0
 10
109.315668
 20
398.300238
 30
0.0
 10
108.467976
 20
396.253727
 30
0.0
  0
SPLINE
  5
125
100
AcDbEntity
  8
Layer_1
 62
1
100
AcDbSpline
 70
8
 71
3
 72
8
 73
4
 74
0
 40
0
 40
0
 40
0
 40
0
 40
1
 40
1
 40
1
 40
1
 10
108.467976
 20
396.253727
 30
0.0
 10
107.620284
 20
394.207217
 30
0.0
 10
108.088849
 20
391.851582
 30
0.0
 10
109.655180
 20
390.285251
 30
0.0
  0
SPLINE
  5
126
100
AcDbEntity
  8
Layer_1
 62
1
100
AcDbSpline
 70
8
 71
3
 72
8
 73
4
 74
0
 40
0
 40
0
 40
0
 40
0
 40
1
 40
1
 40
1
 40
1
 10
109.655180
 20
390.285251
 30
0.0
 10
111.221511
 20
388.718920
 30
0.0
 10
113.577146
 20
388.250355
 30
0.0
 10
115.623656
 20
389.098047
 30
0.0
  0
SPLINE
  5
127
100
AcDbEntity
  8
Layer_1
 62
1
100
AcDbSpline
 70
8
 71
3
 72
8
 73
4
 74
0
 40
0
 40
0
 40
0
 40
0
 40
1
 40
1
 40
1
 40
1
 10
115.623656
 20
389.098047
 30
0.0
 10
117.670166
 20
389.945739
 30
0.0
 10
119.004526
 20
391.942750
 30
0.0
 10
119.004526
 20
394.157877
 30
0.0
  0
SPLINE
  5
128
100
AcDbEntity
  8
Layer_1
 62
1
100
AcDbSpline
 70
8
 71
3
 72
8
 73
4
 74
0
 40
0
 40
0
 40
0
 40
0
 40
1
 40
1
 40
1
 40
1
 10
119.004526
 20
394.157877
 30
0.0
 10
119.004526
 20
395.610394
 30
0.0
 10
118.427516
 20
397.003419
 30
0.0
 10
117.400431
 20
398.030504
 30
0.0
  0
SPLINE
  5
129
100
AcDbEntity
  8
Layer_1
 62
1
100
AcDbSpline
 70
8
 71
3
 72
8
 73
4
 74
0
 40
0
 40
0
 40
0
 40
0
 40
1
 40
1
 40
1
 40
1
 10
117.400431
 20
398.030504
 30
0.0
 10
116.373347
 20
399.057588
 30
0.0
 10
114.980322
 20
399.634598
 30
0.0
 10
113.527806
 20
399.634598
 30
0.0
  0
LWPOLYLINE
  5
12a
100
AcDbEntity
  8
Layer_1
 62
1
100
AcDbPolyline
 90
1
 70
1
 10
113.527806
 20
444.603814
 30
0.0
  0
LWPOLYLINE
  5
12b
100
AcDbEntity
  8
Layer_1
 62
1
100
AcDbPolyline
 90
1
 70
1
 10
113.527806
 20
399.634598
 30
0.0
  0
SPLINE
  5
12c
100
AcDbEntity
  8
Layer_1
 62
1
100
AcDbSpline
 70
8
 71
3
 72
8
 73
4
 74
0
 40
0
 40
0
 40
0
 40
0
 40
1
 40
1
 40
1
 40
1
 10
410.964642
 20
146.761612
 30
0.0
 10
408.749515
 20
146.761612
 30
0.0
 10
406.752504
 20
145.427252
 30
0.0
 10
405.904812
 20
143.380742
 30
0.0
  0
SPLINE
  5
12d
100
AcDbEntity
  8
Layer_1
 62
1
100
AcDbSpline
 70
8
 71
3
 72
8
 73
4
 74
0
 40
0
 40
0
 40
0
 40
0
 40
1
 40
1
 40
1
 40
1
 10
405.904812
 20
143.380742
 30
0.0
 10
405.057120
 20
141.334231
 30
0.0
 10
405.525685
 20
138.978596
 30
0.0
 10
407.092016
 20
137.412265
 30
0.0
  0
SPLINE
  5
12e
100
AcDbEntity
  8
Layer_1
 62
1
100
AcDbSpline
 70
8
 71
3
 72
8
 73
4
 74
0
 40
0
 40
0
 40
0
 40
0
 40
1
 40
1
 40
1
 40
1
 10
407.092016
 20
137.412265
 30
0.0
 10
408.658347
 20
135.845934
 30
0.0
 10
411.013982
 20
135.377369
 30
0.0
 10
413.060492
 20
136.225061
 30
0.0
  0
SPLINE
  5
12f
100
AcDbEntity
  8
Layer_1
 62
1
100
AcDbSpline
 70
8
 71
3
 72
8
 73
4
 74
0
 40
0
 40
0
 40
0
 40
0
 40
1
 40
1
 40
1
 40
1
 10
413.060492
 20
136.225061
 30
0.0
 10
415.107002
 20
137.072753
 30
0.0
 10
416.441362
 20
139.069765
 30
0.0
 10
416.441362
 20
141.284891
 30
0.0
  0
SPLINE
  5
130
100
AcDbEntity
  8
Layer_1
 62
1
100
AcDbSpline
 70
8
 71
3
 72
8
 73
4
 74
0
 40
0
 40
0
 40
0
 40
0
 40
1
 40
1
 40
1
 40
1
 10
416.441362
 20
141.284891
 30
0.0
 10
416.441362
 20
142.737408
 30
0.0
 10
415.864352
 20
144.130433
 30
0.0
 10
414.837267
 20
145.157518
 30
0.0
  0
SPLINE
  5
131
100
AcDbEntity
  8
Layer_1
 62
1
100
AcDbSpline
 70
8
 71
3
 72
8
 73
4
 74
0
 40
0
 40
0
 40
0
 40
0
 40
1
 40
1
 40
1
 40
1
 10
414.837267
 20
145.157518
 30
0.0
 10
413.810183
 20
146.184602
 30
0.0
 10
412.417158
 20
146.761612
 30
0.0
 10
410.964642
 20
146.761612
 30
0.0
  0
LWPOLYLINE
  5
132
100
AcDbEntity
  8
Layer_1
 62
1
100
AcDbPolyline
 90
4
 70
1
 10
71.067779
 20
515.699631
 30
0.0
 10
155.699498
 20
515.699631
 30
0.0
 10
155.699498
 20
317.682074
 30
0.0
 10
71.067779
 20
317.682074
 30
0.0
  0
SPLINE
  5
133
100
AcDbEntity
  8
Layer_1
 62
1
100
AcDbSpline
 70
8
 71
3
 72
8
 73
4
 74
0
 40
0
 40
0
 40
0
 40
0
 40
1
 40
1
 40
1
 40
1
 10
410.964642
 20
101.792396
 30
0.0
 10
408.749515
 20
101.792396
 30
0.0
 10
406.752504
 20
100.458036
 30
0.0
 10
405.904812
 20
98.411526
 30
0.0
  0
SPLINE
  5
134
100
AcDbEntity
  8
Layer_1
 62
1
100
AcDbSpline
 70
8
 71
3
 72
8
 73
4
 74
0
 40
0
 40
0
 40
0
 40
0
 40
1
 40
1
 40
1
 40
1
 10
405.904812
 20
98.411526
 30
0.0
 10
405.057120
 20
96.365016
 30
0.0
 10
405.525685
 20
94.009380
 30
0.0
 10
407.092016
 20
92.443049
 30
0.0
  0
SPLINE
  5
135
100
AcDbEntity
  8
Layer_1
 62
1
100
AcDbSpline
 70
8
 71
3
 72
8
 73
4
 74
0
 40
0
 40
0
 40
0
 40
0
 40
1
 40
1
 40
1
 40
1
 10
407.092016
 20
92.443049
 30
0.0
 10
408.658347
 20
90.876718
 30
0.0
 10
411.013982
 20
90.408153
 30
0.0
 10
413.060492
 20
91.255845
 30
0.0
  0
SPLINE
  5
136
100
AcDbEntity
  8
Layer_1
 62
1
100
AcDbSpline
 70
8
 71
3
 72
8
 73
4
 74
0
 40
0
 40
0
 40
0
 40
0
 40
1
 40
1
 40
1
 40
1
 10
413.060492
 20
91.255845
 30
0.0
 10
415.107002
 20
92.103538
 30
0.0
 10
416.441362
 20
94.100549
 30
0.0
 10
416.441362
 20
96.315676
 30
0.0
  0
SPLINE
  5
137
100
AcDbEntity
  8
Layer_1
 62
1
100
AcDbSpline
 70
8
 71
3
 72
8
 73
4
 74
0
 40
0
 40
0
 40
0
 40
0
 40
1
 40
1
 40
1
 40
1
 10
416.441362
 20
96.315676
 30
0.0
 10
416.441362
 20
97.768192
 30
0.0
 10
415.864352
 20
99.161218
 30
0.0
 10
414.837267
 20
100.188302
 30
0.0
  0
SPLINE
  5
138
100
AcDbEntity
  8
Layer_1
 62
1
100
AcDbSpline
 70
8
 71
3
 72
8
 73
4
 74
0
 40
0
 40
0
 40
0
 40
0
 40
1
 40
1
 40
1
 40
1
 10
414.837267
 20
100.188302
 30
0.0
 10
413.810183
 20
101.215386
 30
0.0
 10
412.417158
 20
101.792396
 30
0.0
 10
410.964642
 20
101.792396
 30
0.0
  0
LWPOLYLINE
  5
139
100
AcDbEntity
  8
Layer_1
 62
1
100
AcDbPolyline
 90
1
 70
1
 10
410.964642
 20
146.761612
 30
0.0
  0
LWPOLYLINE
  5
13a
100
AcDbEntity
  8
Layer_1
 62
1
100
AcDbPolyline
 90
1
 70
1
 10
410.964642
 20
101.792396
 30
0.0
  0
SPLINE
  5
13b
100
AcDbEntity
  8
Layer_1
 62
1
100
AcDbSpline
 70
8
 71
3
 72
8
 73
4
 74
0
 40
0
 40
0
 40
0
 40
0
 40
1
 40
1
 40
1
 40
1
 10
113.385923
 20
121.694585
 30
0.0
 10
110.361214
 20
121.694585
 30
0.0
 10
107.909203
 20
119.242574
 30
0.0
 10
107.909203
 20
116.217865
 30
0.0
  0
SPLINE
  5
13c
100
AcDbEntity
  8
Layer_1
 62
1
100
AcDbSpline
 70
8
 71
3
 72
8
 73
4
 74
0
 40
0
 40
0
 40
0
 40
0
 40
1
 40
1
 40
1
 40
1
 10
107.909203
 20
116.217865
 30
0.0
 10
107.909203
 20
113.193155
 30
0.0
 10
110.361214
 20
110.741144
 30
0.0
 10
113.385923
 20
110.741144
 30
0.0
  0
SPLINE
  5
13d
100
AcDbEntity
  8
Layer_1
 62
1
100
AcDbSpline
 70
8
 71
3
 72
8
 73
4
 74
0
 40
0
 40
0
 40
0
 40
0
 40
1
 40
1
 40
1
 40
1
 10
113.385923
 20
110.741144
 30
0.0
 10
116.410632
 20
110.741144
 30
0.0
 10
118.862643
 20
113.193155
 30
0.0
 10
118.862643
 20
116.217865
 30
0.0
  0
SPLINE
  5
13e
100
AcDbEntity
  8
Layer_1
 62
1
100
AcDbSpline
 70
8
 71
3
 72
8
 73
4
 74
0
 40
0
 40
0
 40
0
 40
0
 40
1
 40
1
 40
1
 40
1
 10
118.862643
 20
116.217865
 30
0.0
 10
118.862643
 20
117.670381
 30
0.0
 10
118.285633
 20
119.063407
 30
0.0
 10
117.258549
 20
120.090491
 30
0.0
  0
SPLINE
  5
13f
100
AcDbEntity
  8
Layer_1
 62
1
100
AcDbSpline
 70
8
 71
3
 72
8
 73
4
 74
0
 40
0
 40
0
 40
0
 40
0
 40
1
 40
1
 40
1
 40
1
 10
117.258549
 20
120.090491
 30
0.0
 10
116.231465
 20
121.117575
 30
0.0
 10
114.838440
 20
121.694585
 30
0.0
 10
113.385923
 20
121.694585
 30
0.0
  0
LWPOLYLINE
  5
140
100
AcDbEntity
  8
Layer_1
 62
1
100
AcDbPolyline
 90
4
 70
1
 10
368.504612
 20
217.857458
 30
0.0
 10
453.136331
 20
217.857458
 30
0.0
 10
453.136331
 20
19.839900
 30
0.0
 10
368.504612
 20
19.839900
 30
0.0
  0
SPLINE
  5
141
100
AcDbEntity
  8
Layer_1
 62
1
100
AcDbSpline
 70
8
 71
3
 72
8
 73
4
 74
0
 40
0
 40
0
 40
0
 40
0
 40
1
 40
1
 40
1
 40
1
 10
113.385923
 20
212.018132
 30
0.0
 10
110.361214
 20
212.018132
 30
0.0
 10
107.909203
 20
209.566120
 30
0.0
 10
107.909203
 20
206.541411
 30
0.0
  0
SPLINE
  5
142
100
AcDbEntity
  8
Layer_1
 62
1
100
AcDbSpline
 70
8
 71
3
 72
8
 73
4
 74
0
 40
0
 40
0
 40
0
 40
0
 40
1
 40
1
 40
1
 40
1
 10
107.909203
 20
206.541411
 30
0.0
 10
107.909203
 20
203.516702
 30
0.0
 10
110.361214
 20
201.064690
 30
0.0
 10
113.385923
 20
201.064690
 30
0.0
  0
SPLINE
  5
143
100
AcDbEntity
  8
Layer_1
 62
1
100
AcDbSpline
 70
8
 71
3
 72
8
 73
4
 74
0
 40
0
 40
0
 40
0
 40
0
 40
1
 40
1
 40
1
 40
1
 10
113.385923
 20
201.064690
 30
0.0
 10
116.410632
 20
201.064690
 30
0.0
 10
118.862643
 20
203.516702
 30
0.0
 10
118.862643
 20
206.541411
 30
0.0
  0
SPLINE
  5
144
100
AcDbEntity
  8
Layer_1
 62
1
100
AcDbSpline
 70
8
 71
3
 72
8
 73
4
 74
0
 40
0
 40
0
 40
0
 40
0
 40
1
 40
1
 40
1
 40
1
 10
118.862643
 20
206.541411
 30
0.0
 10
118.862643
 20
207.993928
 30
0.0
 10
118.285633
 20
209.386953
 30
0.0
 10
117.258549
 20
210.414037
 30
0.0
  0
SPLINE
  5
145
100
AcDbEntity
  8
Layer_1
 62
1
100
AcDbSpline
 70
8
 71
3
 72
8
 73
4
 74
0
 40
0
 40
0
 40
0
 40
0
 40
1
 40
1
 40
1
 40
1
 10
117.258549
 20
210.414037
 30
0.0
 10
116.231465
 20
211.441122
 30
0.0
 10
114.838440
 20
212.018132
 30
0.0
 10
113.385923
 20
212.018132
 30
0.0
  0
LWPOLYLINE
  5
146
100
AcDbEntity
  8
Layer_1
 62
1
100
AcDbPolyline
 90
1
 70
1
 10
113.385923
 20
121.694585
 30
0.0
  0
LWPOLYLINE
  5
147
100
AcDbEntity
  8
Layer_1
 62
1
100
AcDbPolyline
 90
1
 70
1
 10
113.385923
 20
212.018132
 30
0.0
  0
SPLINE
  5
148
100
AcDbEntity
  8
Layer_1
 62
1
100
AcDbSpline
 70
8
 71
3
 72
8
 73
4
 74
0
 40
0
 40
0
 40
0
 40
0
 40
1
 40
1
 40
1
 40
1
 10
212.915299
 20
121.694585
 30
0.0
 10
210.700172
 20
121.694585
 30
0.0
 10
208.703162
 20
120.360225
 30
0.0
 10
207.855469
 20
118.313715
 30
0.0
  0
SPLINE
  5
149
100
AcDbEntity
  8
Layer_1
 62
1
100
AcDbSpline
 70
8
 71
3
 72
8
 73
4
 74
0
 40
0
 40
0
 40
0
 40
0
 40
1
 40
1
 40
1
 40
1
 10
207.855469
 20
118.313715
 30
0.0
 10
207.007777
 20
116.267205
 30
0.0
 10
207.476342
 20
113.911569
 30
0.0
 10
209.042673
 20
112.345238
 30
0.0
  0
SPLINE
  5
14a
100
AcDbEntity
  8
Layer_1
 62
1
100
AcDbSpline
 70
8
 71
3
 72
8
 73
4
 74
0
 40
0
 40
0
 40
0
 40
0
 40
1
 40
1
 40
1
 40
1
 10
209.042673
 20
112.345238
 30
0.0
 10
210.609004
 20
110.778907
 30
0.0
 10
212.964639
 20
110.310342
 30
0.0
 10
215.011149
 20
111.158034
 30
0.0
  0
SPLINE
  5
14b
100
AcDbEntity
  8
Layer_1
 62
1
100
AcDbSpline
 70
8
 71
3
 72
8
 73
4
 74
0
 40
0
 40
0
 40
0
 40
0
 40
1
 40
1
 40
1
 40
1
 10
215.011149
 20
111.158034
 30
0.0
 10
217.057659
 20
112.005727
 30
0.0
 10
218.392019
 20
114.002738
 30
0.0
 10
218.392019
 20
116.217865
 30
0.0
  0
SPLINE
  5
14c
100
AcDbEntity
  8
Layer_1
 62
1
100
AcDbSpline
 70
8
 71
3
 72
8
 73
4
 74
0
 40
0
 40
0
 40
0
 40
0
 40
1
 40
1
 40
1
 40
1
 10
218.392019
 20
116.217865
 30
0.0
 10
218.392019
 20
117.670381
 30
0.0
 10
217.815009
 20
119.063407
 30
0.0
 10
216.787925
 20
120.090491
 30
0.0
  0
SPLINE
  5
14d
100
AcDbEntity
  8
Layer_1
 62
1
100
AcDbSpline
 70
8
 71
3
 72
8
 73
4
 74
0
 40
0
 40
0
 40
0
 40
0
 40
1
 40
1
 40
1
 40
1
 10
216.787925
 20
120.090491
 30
0.0
 10
215.760840
 20
121.117575
 30
0.0
 10
214.367815
 20
121.694585
 30
0.0
 10
212.915299
 20
121.694585
 30
0.0
  0
LWPOLYLINE
  5
14e
100
AcDbEntity
  8
Layer_1
 62
1
100
AcDbPolyline
 90
4
 70
1
 10
71.107500
 20
303.060983
 30
0.0
 10
155.659779
 20
303.060983
 30
0.0
 10
155.659779
 20
20.083490
 30
0.0
 10
71.107500
 20
20.083490
 30
0.0
  0
SPLINE
  5
14f
100
AcDbEntity
  8
Layer_1
 62
1
100
AcDbSpline
 70
8
 71
3
 72
8
 73
4
 74
0
 40
0
 40
0
 40
0
 40
0
 40
1
 40
1
 40
1
 40
1
 10
212.915299
 20
212.018132
 30
0.0
 10
210.700172
 20
212.018132
 30
0.0
 10
208.703162
 20
210.683772
 30
0.0
 10
207.855469
 20
208.637261
 30
0.0
  0
SPLINE
  5
150
100
AcDbEntity
  8
Layer_1
 62
1
100
AcDbSpline
 70
8
 71
3
 72
8
 73
4
 74
0
 40
0
 40
0
 40
0
 40
0
 40
1
 40
1
 40
1
 40
1
 10
207.855469
 20
208.637261
 30
0.0
 10
207.007777
 20
206.590751
 30
0.0
 10
207.476342
 20
204.235116
 30
0.0
 10
209.042673
 20
202.668785
 30
0.0
  0
SPLINE
  5
151
100
AcDbEntity
  8
Layer_1
 62
1
100
AcDbSpline
 70
8
 71
3
 72
8
 73
4
 74
0
 40
0
 40
0
 40
0
 40
0
 40
1
 40
1
 40
1
 40
1
 10
209.042673
 20
202.668785
 30
0.0
 10
210.609004
 20
201.102453
 30
0.0
 10
212.964639
 20
200.633888
 30
0.0
 10
215.011149
 20
201.481581
 30
0.0
  0
SPLINE
  5
152
100
AcDbEntity
  8
Layer_1
 62
1
100
AcDbSpline
 70
8
 71
3
 72
8
 73
4
 74
0
 40
0
 40
0
 40
0
 40
0
 40
1
 40
1
 40
1
 40
1
 10
215.011149
 20
201.481581
 30
0.0
 10
217.057659
 20
202.329273
 30
0.0
 10
218.392019
 20
204.326284
 30
0.0
 10
218.392019
 20
206.541411
 30
0.0
  0
SPLINE
  5
153
100
AcDbEntity
  8
Layer_1
 62
1
100
AcDbSpline
 70
8
 71
3
 72
8
 73
4
 74
0
 40
0
 40
0
 40
0
 40
0
 40
1
 40
1
 40
1
 40
1
 10
218.392019
 20
206.541411
 30
0.0
 10
218.392019
 20
207.993928
 30
0.0
 10
217.815009
 20
209.386953
 30
0.0
 10
216.787925
 20
210.414037
 30
0.0
  0
SPLINE
  5
154
100
AcDbEntity
  8
Layer_1
 62
1
100
AcDbSpline
 70
8
 71
3
 72
8
 73
4
 74
0
 40
0
 40
0
 40
0
 40
0
 40
1
 40
1
 40
1
 40
1
 10
216.787925
 20
210.414037
 30
0.0
 10
215.760840
 20
211.441122
 30
0.0
 10
214.367815
 20
212.018132
 30
0.0
 10
212.915299
 20
212.018132
 30
0.0
  0
LWPOLYLINE
  5
155
100
AcDbEntity
  8
Layer_1
 62
1
100
AcDbPolyline
 90
1
 70
1
 10
212.915299
 20
121.694585
 30
0.0
  0
LWPOLYLINE
  5
156
100
AcDbEntity
  8
Layer_1
 62
1
100
AcDbPolyline
 90
1
 70
1
 10
212.915299
 20
212.018132
 30
0.0
  0
SPLINE
  5
157
100
AcDbEntity
  8
Layer_1
 62
1
100
AcDbSpline
 70
8
 71
3
 72
8
 73
4
 74
0
 40
0
 40
0
 40
0
 40
0
 40
1
 40
1
 40
1
 40
1
 10
312.054293
 20
121.938422
 30
0.0
 10
309.839166
 20
121.938422
 30
0.0
 10
307.842156
 20
120.604061
 30
0.0
 10
306.994463
 20
118.557551
 30
0.0
  0
SPLINE
  5
158
100
AcDbEntity
  8
Layer_1
 62
1
100
AcDbSpline
 70
8
 71
3
 72
8
 73
4
 74
0
 40
0
 40
0
 40
0
 40
0
 40
1
 40
1
 40
1
 40
1
 10
306.994463
 20
118.557551
 30
0.0
 10
306.146771
 20
116.511041
 30
0.0
 10
306.615336
 20
114.155406
 30
0.0
 10
308.181667
 20
112.589074
 30
0.0
  0
SPLINE
  5
159
100
AcDbEntity
  8
Layer_1
 62
1
100
AcDbSpline
 70
8
 71
3
 72
8
 73
4
 74
0
 40
0
 40
0
 40
0
 40
0
 40
1
 40
1
 40
1
 40
1
 10
308.181667
 20
112.589074
 30
0.0
 10
309.747998
 20
111.022743
 30
0.0
 10
312.103633
 20
110.554178
 30
0.0
 10
314.150143
 20
111.401871
 30
0.0
  0
SPLINE
  5
15a
100
AcDbEntity
  8
Layer_1
 62
1
100
AcDbSpline
 70
8
 71
3
 72
8
 73
4
 74
0
 40
0
 40
0
 40
0
 40
0
 40
1
 40
1
 40
1
 40
1
 10
314.150143
 20
111.401871
 30
0.0
 10
316.196653
 20
112.249563
 30
0.0
 10
317.531013
 20
114.246574
 30
0.0
 10
317.531013
 20
116.461701
 30
0.0
  0
SPLINE
  5
15b
100
AcDbEntity
  8
Layer_1
 62
1
100
AcDbSpline
 70
8
 71
3
 72
8
 73
4
 74
0
 40
0
 40
0
 40
0
 40
0
 40
1
 40
1
 40
1
 40
1
 10
317.531013
 20
116.461701
 30
0.0
 10
317.531013
 20
117.914217
 30
0.0
 10
316.954003
 20
119.307243
 30
0.0
 10
315.926919
 20
120.334327
 30
0.0
  0
SPLINE
  5
15c
100
AcDbEntity
  8
Layer_1
 62
1
100
AcDbSpline
 70
8
 71
3
 72
8
 73
4
 74
0
 40
0
 40
0
 40
0
 40
0
 40
1
 40
1
 40
1
 40
1
 10
315.926919
 20
120.334327
 30
0.0
 10
314.899835
 20
121.361412
 30
0.0
 10
313.506809
 20
121.938422
 30
0.0
 10
312.054293
 20
121.938422
 30
0.0
  0
LWPOLYLINE
  5
15d
100
AcDbEntity
  8
Layer_1
 62
1
100
AcDbPolyline
 90
4
 70
1
 10
170.636871
 20
303.060983
 30
0.0
 10
255.189149
 20
303.060983
 30
0.0
 10
255.189149
 20
20.083490
 30
0.0
 10
170.636871
 20
20.083490
 30
0.0
  0
SPLINE
  5
15e
100
AcDbEntity
  8
Layer_1
 62
1
100
AcDbSpline
 70
8
 71
3
 72
8
 73
4
 74
0
 40
0
 40
0
 40
0
 40
0
 40
1
 40
1
 40
1
 40
1
 10
312.054293
 20
212.261940
 30
0.0
 10
309.839166
 20
212.261940
 30
0.0
 10
307.842156
 20
210.927580
 30
0.0
 10
306.994463
 20
208.881069
 30
0.0
  0
SPLINE
  5
15f
100
AcDbEntity
  8
Layer_1
 62
1
100
AcDbSpline
 70
8
 71
3
 72
8
 73
4
 74
0
 40
0
 40
0
 40
0
 40
0
 40
1
 40
1
 40
1
 40
1
 10
306.994463
 20
208.881069
 30
0.0
 10
306.146771
 20
206.834559
 30
0.0
 10
306.615336
 20
204.478924
 30
0.0
 10
308.181667
 20
202.912592
 30
0.0
  0
SPLINE
  5
160
100
AcDbEntity
  8
Layer_1
 62
1
100
AcDbSpline
 70
8
 71
3
 72
8
 73
4
 74
0
 40
0
 40
0
 40
0
 40
0
 40
1
 40
1
 40
1
 40
1
 10
308.181667
 20
202.912592
 30
0.0
 10
309.747998
 20
201.346261
 30
0.0
 10
312.103633
 20
200.877696
 30
0.0
 10
314.150143
 20
201.725389
 30
0.0
  0
SPLINE
  5
161
100
AcDbEntity
  8
Layer_1
 62
1
100
AcDbSpline
 70
8
 71
3
 72
8
 73
4
 74
0
 40
0
 40
0
 40
0
 40
0
 40
1
 40
1
 40
1
 40
1
 10
314.150143
 20
201.725389
 30
0.0
 10
316.196653
 20
202.573081
 30
0.0
 10
317.531013
 20
204.570092
 30
0.0
 10
317.531013
 20
206.785219
 30
0.0
  0
SPLINE
  5
162
100
AcDbEntity
  8
Layer_1
 62
1
100
AcDbSpline
 70
8
 71
3
 72
8
 73
4
 74
0
 40
0
 40
0
 40
0
 40
0
 40
1
 40
1
 40
1
 40
1
 10
317.531013
 20
206.785219
 30
0.0
 10
317.531013
 20
208.237736
 30
0.0
 10
316.954003
 20
209.630761
 30
0.0
 10
315.926919
 20
210.657845
 30
0.0
  0
SPLINE
  5
163
100
AcDbEntity
  8
Layer_1
 62
1
100
AcDbSpline
 70
8
 71
3
 72
8
 73
4
 74
0
 40
0
 40
0
 40
0
 40
0
 40
1
 40
1
 40
1
 40
1
 10
315.926919
 20
210.657845
 30
0.0
 10
314.899835
 20
211.684930
 30
0.0
 10
313.506809
 20
212.261940
 30
0.0
 10
312.054293
 20
212.261940
 30
0.0
  0
LWPOLYLINE
  5
164
100
AcDbEntity
  8
Layer_1
 62
1
100
AcDbPolyline
 90
1
 70
1
 10
312.054293
 20
121.938422
 30
0.0
  0
LWPOLYLINE
  5
165
100
AcDbEntity
  8
Layer_1
 62
1
100
AcDbPolyline
 90
1
 70
1
 10
312.054293
 20
212.261940
 30
0.0
  0
SPLINE
  5
166
100
AcDbEntity
  8
Layer_1
 62
1
100
AcDbSpline
 70
8
 71
3
 72
8
 73
4
 74
0
 40
0
 40
0
 40
0
 40
0
 40
1
 40
1
 40
1
 40
1
 10
510.094091
 20
261.868154
 30
0.0
 10
507.878965
 20
261.868154
 30
0.0
 10
505.881954
 20
260.533794
 30
0.0
 10
505.034262
 20
258.487283
 30
0.0
  0
SPLINE
  5
167
100
AcDbEntity
  8
Layer_1
 62
1
100
AcDbSpline
 70
8
 71
3
 72
8
 73
4
 74
0
 40
0
 40
0
 40
0
 40
0
 40
1
 40
1
 40
1
 40
1
 10
505.034262
 20
258.487283
 30
0.0
 10
504.186570
 20
256.440773
 30
0.0
 10
504.655135
 20
254.085138
 30
0.0
 10
506.221466
 20
252.518807
 30
0.0
  0
SPLINE
  5
168
100
AcDbEntity
  8
Layer_1
 62
1
100
AcDbSpline
 70
8
 71
3
 72
8
 73
4
 74
0
 40
0
 40
0
 40
0
 40
0
 40
1
 40
1
 40
1
 40
1
 10
506.221466
 20
252.518807
 30
0.0
 10
507.787796
 20
250.952475
 30
0.0
 10
510.143431
 20
250.483910
 30
0.0
 10
512.189941
 20
251.331603
 30
0.0
  0
SPLINE
  5
169
100
AcDbEntity
  8
Layer_1
 62
1
100
AcDbSpline
 70
8
 71
3
 72
8
 73
4
 74
0
 40
0
 40
0
 40
0
 40
0
 40
1
 40
1
 40
1
 40
1
 10
512.189941
 20
251.331603
 30
0.0
 10
514.236451
 20
252.179295
 30
0.0
 10
515.570811
 20
254.176306
 30
0.0
 10
515.570811
 20
256.391433
 30
0.0
  0
SPLINE
  5
16a
100
AcDbEntity
  8
Layer_1
 62
1
100
AcDbSpline
 70
8
 71
3
 72
8
 73
4
 74
0
 40
0
 40
0
 40
0
 40
0
 40
1
 40
1
 40
1
 40
1
 10
515.570811
 20
256.391433
 30
0.0
 10
515.570811
 20
257.843950
 30
0.0
 10
514.993801
 20
259.236975
 30
0.0
 10
513.966717
 20
260.264060
 30
0.0
  0
SPLINE
  5
16b
100
AcDbEntity
  8
Layer_1
 62
1
100
AcDbSpline
 70
8
 71
3
 72
8
 73
4
 74
0
 40
0
 40
0
 40
0
 40
0
 40
1
 40
1
 40
1
 40
1
 10
513.966717
 20
260.264060
 30
0.0
 10
512.939633
 20
261.291144
 30
0.0
 10
511.546608
 20
261.868154
 30
0.0
 10
510.094091
 20
261.868154
 30
0.0
  0
LWPOLYLINE
  5
16c
100
AcDbEntity
  8
Layer_1
 62
1
100
AcDbPolyline
 90
4
 70
1
 10
269.775839
 20
303.304791
 30
0.0
 10
354.328118
 20
303.304791
 30
0.0
 10
354.328118
 20
20.327298
 30
0.0
 10
269.775839
 20
20.327298
 30
0.0
  0
SPLINE
  5
16d
100
AcDbEntity
  8
Layer_1
 62
1
100
AcDbSpline
 70
8
 71
3
 72
8
 73
4
 74
0
 40
0
 40
0
 40
0
 40
0
 40
1
 40
1
 40
1
 40
1
 10
510.094091
 20
171.159492
 30
0.0
 10
507.878965
 20
171.159492
 30
0.0
 10
505.881954
 20
169.825132
 30
0.0
 10
505.034262
 20
167.778622
 30
0.0
  0
SPLINE
  5
16e
100
AcDbEntity
  8
Layer_1
 62
1
100
AcDbSpline
 70
8
 71
3
 72
8
 73
4
 74
0
 40
0
 40
0
 40
0
 40
0
 40
1
 40
1
 40
1
 40
1
 10
505.034262
 20
167.778622
 30
0.0
 10
504.186570
 20
165.732112
 30
0.0
 10
504.655135
 20
163.376476
 30
0.0
 10
506.221466
 20
161.810145
 30
0.0
  0
SPLINE
  5
16f
100
AcDbEntity
  8
Layer_1
 62
1
100
AcDbSpline
 70
8
 71
3
 72
8
 73
4
 74
0
 40
0
 40
0
 40
0
 40
0
 40
1
 40
1
 40
1
 40
1
 10
506.221466
 20
161.810145
 30
0.0
 10
507.787796
 20
160.243814
 30
0.0
 10
510.143431
 20
159.775249
 30
0.0
 10
512.189941
 20
160.622941
 30
0.0
  0
SPLINE
  5
170
100
AcDbEntity
  8
Layer_1
 62
1
100
AcDbSpline
 70
8
 71
3
 72
8
 73
4
 74
0
 40
0
 40
0
 40
0
 40
0
 40
1
 40
1
 40
1
 40
1
 10
512.189941
 20
160.622941
 30
0.0
 10
514.236451
 20
161.470634
 30
0.0
 10
515.570811
 20
163.467645
 30
0.0
 10
515.570811
 20
165.682772
 30
0.0
  0
SPLINE
  5
171
100
AcDbEntity
  8
Layer_1
 62
1
100
AcDbSpline
 70
8
 71
3
 72
8
 73
4
 74
0
 40
0
 40
0
 40
0
 40
0
 40
1
 40
1
 40
1
 40
1
 10
515.570811
 20
165.682772
 30
0.0
 10
515.570811
 20
167.135288
 30
0.0
 10
514.993801
 20
168.528314
 30
0.0
 10
513.966717
 20
169.555398
 30
0.0
  0
SPLINE
  5
172
100
AcDbEntity
  8
Layer_1
 62
1
100
AcDbSpline
 70
8
 71
3
 72
8
 73
4
 74
0
 40
0
 40
0
 40
0
 40
0
 40
1
 40
1
 40
1
 40
1
 10
513.966717
 20
169.555398
 30
0.0
 10
512.939633
 20
170.582482
 30
0.0
 10
511.546608
 20
171.159492
 30
0.0
 10
510.094091
 20
171.159492
 30
0.0
  0
LWPOLYLINE
  5
173
100
AcDbEntity
  8
Layer_1
 62
1
100
AcDbPolyline
 90
1
 70
1
 10
510.094091
 20
261.868154
 30
0.0
  0
SPLINE
  5
174
100
AcDbEntity
  8
Layer_1
 62
1
100
AcDbSpline
 70
8
 71
3
 72
8
 73
4
 74
0
 40
0
 40
0
 40
0
 40
0
 40
1
 40
1
 40
1
 40
1
 10
212.769794
 20
444.603814
 30
0.0
 10
210.554667
 20
444.603814
 30
0.0
 10
208.557656
 20
443.269454
 30
0.0
 10
207.709964
 20
441.222943
 30
0.0
  0
SPLINE
  5
175
100
AcDbEntity
  8
Layer_1
 62
1
100
AcDbSpline
 70
8
 71
3
 72
8
 73
4
 74
0
 40
0
 40
0
 40
0
 40
0
 40
1
 40
1
 40
1
 40
1
 10
207.709964
 20
441.222943
 30
0.0
 10
206.862272
 20
439.176433
 30
0.0
 10
207.330837
 20
436.820798
 30
0.0
 10
208.897168
 20
435.254466
 30
0.0
  0
SPLINE
  5
176
100
AcDbEntity
  8
Layer_1
 62
1
100
AcDbSpline
 70
8
 71
3
 72
8
 73
4
 74
0
 40
0
 40
0
 40
0
 40
0
 40
1
 40
1
 40
1
 40
1
 10
208.897168
 20
435.254466
 30
0.0
 10
210.463499
 20
433.688135
 30
0.0
 10
212.819134
 20
433.219570
 30
0.0
 10
214.865644
 20
434.067263
 30
0.0
  0
SPLINE
  5
177
100
AcDbEntity
  8
Layer_1
 62
1
100
AcDbSpline
 70
8
 71
3
 72
8
 73
4
 74
0
 40
0
 40
0
 40
0
 40
0
 40
1
 40
1
 40
1
 40
1
 10
214.865644
 20
434.067263
 30
0.0
 10
216.912154
 20
434.914955
 30
0.0
 10
218.246514
 20
436.911966
 30
0.0
 10
218.246514
 20
439.127093
 30
0.0
  0
SPLINE
  5
178
100
AcDbEntity
  8
Layer_1
 62
1
100
AcDbSpline
 70
8
 71
3
 72
8
 73
4
 74
0
 40
0
 40
0
 40
0
 40
0
 40
1
 40
1
 40
1
 40
1
 10
218.246514
 20
439.127093
 30
0.0
 10
218.246514
 20
440.579610
 30
0.0
 10
217.669504
 20
441.972635
 30
0.0
 10
216.642420
 20
442.999719
 30
0.0
  0
SPLINE
  5
179
100
AcDbEntity
  8
Layer_1
 62
1
100
AcDbSpline
 70
8
 71
3
 72
8
 73
4
 74
0
 40
0
 40
0
 40
0
 40
0
 40
1
 40
1
 40
1
 40
1
 10
216.642420
 20
442.999719
 30
0.0
 10
215.615335
 20
444.026804
 30
0.0
 10
214.222310
 20
444.603814
 30
0.0
 10
212.769794
 20
444.603814
 30
0.0
  0
LWPOLYLINE
  5
17a
100
AcDbEntity
  8
Layer_1
 62
1
100
AcDbPolyline
 90
1
 70
1
 10
510.094091
 20
171.159492
 30
0.0
  0
SPLINE
  5
17b
100
AcDbEntity
  8
Layer_1
 62
1
100
AcDbSpline
 70
8
 71
3
 72
8
 73
4
 74
0
 40
0
 40
0
 40
0
 40
0
 40
1
 40
1
 40
1
 40
1
 10
212.769794
 20
399.634598
 30
0.0
 10
210.554667
 20
399.634598
 30
0.0
 10
208.557656
 20
398.300238
 30
0.0
 10
207.709964
 20
396.253727
 30
0.0
  0
SPLINE
  5
17c
100
AcDbEntity
  8
Layer_1
 62
1
100
AcDbSpline
 70
8
 71
3
 72
8
 73
4
 74
0
 40
0
 40
0
 40
0
 40
0
 40
1
 40
1
 40
1
 40
1
 10
207.709964
 20
396.253727
 30
0.0
 10
206.862272
 20
394.207217
 30
0.0
 10
207.330837
 20
391.851582
 30
0.0
 10
208.897168
 20
390.285251
 30
0.0
  0
SPLINE
  5
17d
100
AcDbEntity
  8
Layer_1
 62
1
100
AcDbSpline
 70
8
 71
3
 72
8
 73
4
 74
0
 40
0
 40
0
 40
0
 40
0
 40
1
 40
1
 40
1
 40
1
 10
208.897168
 20
390.285251
 30
0.0
 10
210.463499
 20
388.718920
 30
0.0
 10
212.819134
 20
388.250355
 30
0.0
 10
214.865644
 20
389.098047
 30
0.0
  0
SPLINE
  5
17e
100
AcDbEntity
  8
Layer_1
 62
1
100
AcDbSpline
 70
8
 71
3
 72
8
 73
4
 74
0
 40
0
 40
0
 40
0
 40
0
 40
1
 40
1
 40
1
 40
1
 10
214.865644
 20
389.098047
 30
0.0
 10
216.912154
 20
389.945739
 30
0.0
 10
218.246514
 20
391.942750
 30
0.0
 10
218.246514
 20
394.157877
 30
0.0
  0
SPLINE
  5
17f
100
AcDbEntity
  8
Layer_1
 62
1
100
AcDbSpline
 70
8
 71
3
 72
8
 73
4
 74
0
 40
0
 40
0
 40
0
 40
0
 40
1
 40
1
 40
1
 40
1
 10
218.246514
 20
394.157877
 30
0.0
 10
218.246514
 20
395.610394
 30
0.0
 10
217.669504
 20
397.003419
 30
0.0
 10
216.642420
 20
398.030504
 30
0.0
  0
SPLINE
  5
180
100
AcDbEntity
  8
Layer_1
 62
1
100
AcDbSpline
 70
8
 71
3
 72
8
 73
4
 74
0
 40
0
 40
0
 40
0
 40
0
 40
1
 40
1
 40
1
 40
1
 10
216.642420
 20
398.030504
 30
0.0
 10
215.615335
 20
399.057588
 30
0.0
 10
214.222310
 20
399.634598
 30
0.0
 10
212.769794
 20
399.634598
 30
0.0
  0
LWPOLYLINE
  5
181
100
AcDbEntity
  8
Layer_1
 62
1
100
AcDbPolyline
 90
1
 70
1
 10
212.769794
 20
444.603814
 30
0.0
  0
LWPOLYLINE
  5
182
100
AcDbEntity
  8
Layer_1
 62
1
100
AcDbPolyline
 90
1
 70
1
 10
212.769794
 20
399.634598
 30
0.0
  0
SPLINE
  5
183
100
AcDbEntity
  8
Layer_1
 62
1
100
AcDbSpline
 70
8
 71
3
 72
8
 73
4
 74
0
 40
0
 40
0
 40
0
 40
0
 40
1
 40
1
 40
1
 40
1
 10
311.980762
 20
444.603814
 30
0.0
 10
309.765636
 20
444.603814
 30
0.0
 10
307.768625
 20
443.269454
 30
0.0
 10
306.920933
 20
441.222943
 30
0.0
  0
SPLINE
  5
184
100
AcDbEntity
  8
Layer_1
 62
1
100
AcDbSpline
 70
8
 71
3
 72
8
 73
4
 74
0
 40
0
 40
0
 40
0
 40
0
 40
1
 40
1
 40
1
 40
1
 10
306.920933
 20
441.222943
 30
0.0
 10
306.073241
 20
439.176433
 30
0.0
 10
306.541805
 20
436.820798
 30
0.0
 10
308.108136
 20
435.254466
 30
0.0
  0
SPLINE
  5
185
100
AcDbEntity
  8
Layer_1
 62
1
100
AcDbSpline
 70
8
 71
3
 72
8
 73
4
 74
0
 40
0
 40
0
 40
0
 40
0
 40
1
 40
1
 40
1
 40
1
 10
308.108136
 20
435.254466
 30
0.0
 10
309.674467
 20
433.688135
 30
0.0
 10
312.030102
 20
433.219570
 30
0.0
 10
314.076612
 20
434.067263
 30
0.0
  0
SPLINE
  5
186
100
AcDbEntity
  8
Layer_1
 62
1
100
AcDbSpline
 70
8
 71
3
 72
8
 73
4
 74
0
 40
0
 40
0
 40
0
 40
0
 40
1
 40
1
 40
1
 40
1
 10
314.076612
 20
434.067263
 30
0.0
 10
316.123122
 20
434.914955
 30
0.0
 10
317.457482
 20
436.911966
 30
0.0
 10
317.457482
 20
439.127093
 30
0.0
  0
SPLINE
  5
187
100
AcDbEntity
  8
Layer_1
 62
1
100
AcDbSpline
 70
8
 71
3
 72
8
 73
4
 74
0
 40
0
 40
0
 40
0
 40
0
 40
1
 40
1
 40
1
 40
1
 10
317.457482
 20
439.127093
 30
0.0
 10
317.457482
 20
440.579610
 30
0.0
 10
316.880472
 20
441.972635
 30
0.0
 10
315.853388
 20
442.999719
 30
0.0
  0
SPLINE
  5
188
100
AcDbEntity
  8
Layer_1
 62
1
100
AcDbSpline
 70
8
 71
3
 72
8
 73
4
 74
0
 40
0
 40
0
 40
0
 40
0
 40
1
 40
1
 40
1
 40
1
 10
315.853388
 20
442.999719
 30
0.0
 10
314.826304
 20
444.026804
 30
0.0
 10
313.433279
 20
444.603814
 30
0.0
 10
311.980762
 20
444.603814
 30
0.0
  0
LWPOLYLINE
  5
189
100
AcDbEntity
  8
Layer_1
 62
1
100
AcDbPolyline
 90
4
 70
1
 10
170.309778
 20
515.699631
 30
0.0
 10
254.941498
 20
515.699631
 30
0.0
 10
254.941498
 20
317.682074
 30
0.0
 10
170.309778
 20
317.682074
 30
0.0
  0
SPLINE
  5
18a
100
AcDbEntity
  8
Layer_1
 62
1
100
AcDbSpline
 70
8
 71
3
 72
8
 73
4
 74
0
 40
0
 40
0
 40
0
 40
0
 40
1
 40
1
 40
1
 40
1
 10
311.980762
 20
399.634598
 30
0.0
 10
309.765636
 20
399.634598
 30
0.0
 10
307.768625
 20
398.300238
 30
0.0
 10
306.920933
 20
396.253727
 30
0.0
  0
SPLINE
  5
18b
100
AcDbEntity
  8
Layer_1
 62
1
100
AcDbSpline
 70
8
 71
3
 72
8
 73
4
 74
0
 40
0
 40
0
 40
0
 40
0
 40
1
 40
1
 40
1
 40
1
 10
306.920933
 20
396.253727
 30
0.0
 10
306.073241
 20
394.207217
 30
0.0
 10
306.541805
 20
391.851582
 30
0.0
 10
308.108136
 20
390.285251
 30
0.0
  0
SPLINE
  5
18c
100
AcDbEntity
  8
Layer_1
 62
1
100
AcDbSpline
 70
8
 71
3
 72
8
 73
4
 74
0
 40
0
 40
0
 40
0
 40
0
 40
1
 40
1
 40
1
 40
1
 10
308.108136
 20
390.285251
 30
0.0
 10
309.674467
 20
388.718920
 30
0.0
 10
312.030102
 20
388.250355
 30
0.0
 10
314.076612
 20
389.098047
 30
0.0
  0
SPLINE
  5
18d
100
AcDbEntity
  8
Layer_1
 62
1
100
AcDbSpline
 70
8
 71
3
 72
8
 73
4
 74
0
 40
0
 40
0
 40
0
 40
0
 40
1
 40
1
 40
1
 40
1
 10
314.076612
 20
389.098047
 30
0.0
 10
316.123122
 20
389.945739
 30
0.0
 10
317.457482
 20
391.942750
 30
0.0
 10
317.457482
 20
394.157877
 30
0.0
  0
SPLINE
  5
18e
100
AcDbEntity
  8
Layer_1
 62
1
100
AcDbSpline
 70
8
 71
3
 72
8
 73
4
 74
0
 40
0
 40
0
 40
0
 40
0
 40
1
 40
1
 40
1
 40
1
 10
317.457482
 20
394.157877
 30
0.0
 10
317.457482
 20
395.610394
 30
0.0
 10
316.880472
 20
397.003419
 30
0.0
 10
315.853388
 20
398.030504
 30
0.0
  0
SPLINE
  5
18f
100
AcDbEntity
  8
Layer_1
 62
1
100
AcDbSpline
 70
8
 71
3
 72
8
 73
4
 74
0
 40
0
 40
0
 40
0
 40
0
 40
1
 40
1
 40
1
 40
1
 10
315.853388
 20
398.030504
 30
0.0
 10
314.826304
 20
399.057588
 30
0.0
 10
313.433279
 20
399.634598
 30
0.0
 10
311.980762
 20
399.634598
 30
0.0
  0
LWPOLYLINE
  5
190
100
AcDbEntity
  8
Layer_1
 62
1
100
AcDbPolyline
 90
1
 70
1
 10
311.980762
 20
444.603814
 30
0.0
  0
LWPOLYLINE
  5
191
100
AcDbEntity
  8
Layer_1
 62
1
100
AcDbPolyline
 90
1
 70
1
 10
311.980762
 20
399.634598
 30
0.0
  0
SPLINE
  5
192
100
AcDbEntity
  8
Layer_1
 62
1
100
AcDbSpline
 70
8
 71
3
 72
8
 73
4
 74
0
 40
0
 40
0
 40
0
 40
0
 40
1
 40
1
 40
1
 40
1
 10
411.373191
 20
444.807625
 30
0.0
 10
409.158064
 20
444.807625
 30
0.0
 10
407.161053
 20
443.473265
 30
0.0
 10
406.313361
 20
441.426754
 30
0.0
  0
SPLINE
  5
193
100
AcDbEntity
  8
Layer_1
 62
1
100
AcDbSpline
 70
8
 71
3
 72
8
 73
4
 74
0
 40
0
 40
0
 40
0
 40
0
 40
1
 40
1
 40
1
 40
1
 10
406.313361
 20
441.426754
 30
0.0
 10
405.465669
 20
439.380244
 30
0.0
 10
405.934234
 20
437.024609
 30
0.0
 10
407.500565
 20
435.458278
 30
0.0
  0
SPLINE
  5
194
100
AcDbEntity
  8
Layer_1
 62
1
100
AcDbSpline
 70
8
 71
3
 72
8
 73
4
 74
0
 40
0
 40
0
 40
0
 40
0
 40
1
 40
1
 40
1
 40
1
 10
407.500565
 20
435.458278
 30
0.0
 10
409.066896
 20
433.891946
 30
0.0
 10
411.422531
 20
433.423381
 30
0.0
 10
413.469041
 20
434.271074
 30
0.0
  0
SPLINE
  5
195
100
AcDbEntity
  8
Layer_1
 62
1
100
AcDbSpline
 70
8
 71
3
 72
8
 73
4
 74
0
 40
0
 40
0
 40
0
 40
0
 40
1
 40
1
 40
1
 40
1
 10
413.469041
 20
434.271074
 30
0.0
 10
415.515551
 20
435.118766
 30
0.0
 10
416.849911
 20
437.115777
 30
0.0
 10
416.849911
 20
439.330904
 30
0.0
  0
SPLINE
  5
196
100
AcDbEntity
  8
Layer_1
 62
1
100
AcDbSpline
 70
8
 71
3
 72
8
 73
4
 74
0
 40
0
 40
0
 40
0
 40
0
 40
1
 40
1
 40
1
 40
1
 10
416.849911
 20
439.330904
 30
0.0
 10
416.849911
 20
440.783421
 30
0.0
 10
416.272901
 20
442.176446
 30
0.0
 10
415.245816
 20
443.203530
 30
0.0
  0
SPLINE
  5
197
100
AcDbEntity
  8
Layer_1
 62
1
100
AcDbSpline
 70
8
 71
3
 72
8
 73
4
 74
0
 40
0
 40
0
 40
0
 40
0
 40
1
 40
1
 40
1
 40
1
 10
415.245816
 20
443.203530
 30
0.0
 10
414.218732
 20
444.230615
 30
0.0
 10
412.825707
 20
444.807625
 30
0.0
 10
411.373191
 20
444.807625
 30
0.0
  0
LWPOLYLINE
  5
198
100
AcDbEntity
  8
Layer_1
 62
1
100
AcDbPolyline
 90
4
 70
1
 10
269.520710
 20
515.699631
 30
0.0
 10
354.152429
 20
515.699631
 30
0.0
 10
354.152429
 20
317.682074
 30
0.0
 10
269.520710
 20
317.682074
 30
0.0
  0
SPLINE
  5
199
100
AcDbEntity
  8
Layer_1
 62
1
100
AcDbSpline
 70
8
 71
3
 72
8
 73
4
 74
0
 40
0
 40
0
 40
0
 40
0
 40
1
 40
1
 40
1
 40
1
 10
411.373191
 20
399.838409
 30
0.0
 10
409.158064
 20
399.838409
 30
0.0
 10
407.161053
 20
398.504049
 30
0.0
 10
406.313361
 20
396.457539
 30
0.0
  0
SPLINE
  5
19a
100
AcDbEntity
  8
Layer_1
 62
1
100
AcDbSpline
 70
8
 71
3
 72
8
 73
4
 74
0
 40
0
 40
0
 40
0
 40
0
 40
1
 40
1
 40
1
 40
1
 10
406.313361
 20
396.457539
 30
0.0
 10
405.465669
 20
394.411028
 30
0.0
 10
405.934234
 20
392.055393
 30
0.0
 10
407.500565
 20
390.489062
 30
0.0
  0
SPLINE
  5
19b
100
AcDbEntity
  8
Layer_1
 62
1
100
AcDbSpline
 70
8
 71
3
 72
8
 73
4
 74
0
 40
0
 40
0
 40
0
 40
0
 40
1
 40
1
 40
1
 40
1
 10
407.500565
 20
390.489062
 30
0.0
 10
409.066896
 20
388.922731
 30
0.0
 10
411.422531
 20
388.454166
 30
0.0
 10
413.469041
 20
389.301858
 30
0.0
  0
SPLINE
  5
19c
100
AcDbEntity
  8
Layer_1
 62
1
100
AcDbSpline
 70
8
 71
3
 72
8
 73
4
 74
0
 40
0
 40
0
 40
0
 40
0
 40
1
 40
1
 40
1
 40
1
 10
413.469041
 20
389.301858
 30
0.0
 10
415.515551
 20
390.149550
 30
0.0
 10
416.849911
 20
392.146561
 30
0.0
 10
416.849911
 20
394.361688
 30
0.0
  0
SPLINE
  5
19d
100
AcDbEntity
  8
Layer_1
 62
1
100
AcDbSpline
 70
8
 71
3
 72
8
 73
4
 74
0
 40
0
 40
0
 40
0
 40
0
 40
1
 40
1
 40
1
 40
1
 10
416.849911
 20
394.361688
 30
0.0
 10
416.849911
 20
395.814205
 30
0.0
 10
416.272901
 20
397.207230
 30
0.0
 10
415.245816
 20
398.234315
 30
0.0
  0
SPLINE
  5
19e
100
AcDbEntity
  8
Layer_1
 62
1
100
AcDbSpline
 70
8
 71
3
 72
8
 73
4
 74
0
 40
0
 40
0
 40
0
 40
0
 40
1
 40
1
 40
1
 40
1
 10
415.245816
 20
398.234315
 30
0.0
 10
414.218732
 20
399.261399
 30
0.0
 10
412.825707
 20
399.838409
 30
0.0
 10
411.373191
 20
399.838409
 30
0.0
  0
LWPOLYLINE
  5
19f
100
AcDbEntity
  8
Layer_1
 62
1
100
AcDbPolyline
 90
1
 70
1
 10
411.373191
 20
444.807625
 30
0.0
  0
LWPOLYLINE
  5
1a0
100
AcDbEntity
  8
Layer_1
 62
1
100
AcDbPolyline
 90
1
 70
1
 10
411.373191
 20
399.838409
 30
0.0
  0
LWPOLYLINE
  5
1a1
100
AcDbEntity
  8
Layer_1
 62
1
100
AcDbPolyline
 90
4
 70
1
 10
368.913203
 20
515.903443
 30
0.0
 10
453.544923
 20
515.903443
 30
0.0
 10
453.544923
 20
317.885885
 30
0.0
 10
368.913203
 20
317.885885
 30
0.0
  0
SPLINE
  5
1a2
100
AcDbEntity
  8
Layer_1
 62
1
100
AcDbSpline
 70
8
 71
3
 72
8
 73
4
 74
0
 40
0
 40
0
 40
0
 40
0
 40
1
 40
1
 40
1
 40
1
 10
510.094091
 20
659.266337
 30
0.0
 10
507.878965
 20
659.266337
 30
0.0
 10
505.881954
 20
657.931977
 30
0.0
 10
505.034262
 20
655.885467
 30
0.0
  0
SPLINE
  5
1a3
100
AcDbEntity
  8
Layer_1
 62
1
100
AcDbSpline
 70
8
 71
3
 72
8
 73
4
 74
0
 40
0
 40
0
 40
0
 40
0
 40
1
 40
1
 40
1
 40
1
 10
505.034262
 20
655.885467
 30
0.0
 10
504.186570
 20
653.838956
 30
0.0
 10
504.655135
 20
651.483321
 30
0.0
 10
506.221466
 20
649.916990
 30
0.0
  0
SPLINE
  5
1a4
100
AcDbEntity
  8
Layer_1
 62
1
100
AcDbSpline
 70
8
 71
3
 72
8
 73
4
 74
0
 40
0
 40
0
 40
0
 40
0
 40
1
 40
1
 40
1
 40
1
 10
506.221466
 20
649.916990
 30
0.0
 10
507.787796
 20
648.350659
 30
0.0
 10
510.143431
 20
647.882094
 30
0.0
 10
512.189941
 20
648.729786
 30
0.0
  0
SPLINE
  5
1a5
100
AcDbEntity
  8
Layer_1
 62
1
100
AcDbSpline
 70
8
 71
3
 72
8
 73
4
 74
0
 40
0
 40
0
 40
0
 40
0
 40
1
 40
1
 40
1
 40
1
 10
512.189941
 20
648.729786
 30
0.0
 10
514.236451
 20
649.577478
 30
0.0
 10
515.570811
 20
651.574490
 30
0.0
 10
515.570811
 20
653.789616
 30
0.0
  0
SPLINE
  5
1a6
100
AcDbEntity
  8
Layer_1
 62
1
100
AcDbSpline
 70
8
 71
3
 72
8
 73
4
 74
0
 40
0
 40
0
 40
0
 40
0
 40
1
 40
1
 40
1
 40
1
 10
515.570811
 20
653.789616
 30
0.0
 10
515.570811
 20
655.242133
 30
0.0
 10
514.993801
 20
656.635158
 30
0.0
 10
513.966717
 20
657.662243
 30
0.0
  0
SPLINE
  5
1a7
100
AcDbEntity
  8
Layer_1
 62
1
100
AcDbSpline
 70
8
 71
3
 72
8
 73
4
 74
0
 40
0
 40
0
 40
0
 40
0
 40
1
 40
1
 40
1
 40
1
 10
513.966717
 20
657.662243
 30
0.0
 10
512.939633
 20
658.689327
 30
0.0
 10
511.546608
 20
659.266337
 30
0.0
 10
510.094091
 20
659.266337
 30
0.0
  0
LWPOLYLINE
  5
1a8
100
AcDbEntity
  8
Layer_1
 62
1
100
AcDbPolyline
 90
4
 70
1
 10
468.263849
 20
373.626255
 30
0.0
 10
552.758774
 20
373.626255
 30
0.0
 10
552.758774
 20
19.839997
 30
0.0
 10
468.263849
 20
19.839997
 30
0.0
  0
SPLINE
  5
1a9
100
AcDbEntity
  8
Layer_1
 62
1
100
AcDbSpline
 70
8
 71
3
 72
8
 73
4
 74
0
 40
0
 40
0
 40
0
 40
0
 40
1
 40
1
 40
1
 40
1
 10
510.094091
 20
568.557676
 30
0.0
 10
507.878965
 20
568.557676
 30
0.0
 10
505.881954
 20
567.223316
 30
0.0
 10
505.034262
 20
565.176805
 30
0.0
  0
SPLINE
  5
1aa
100
AcDbEntity
  8
Layer_1
 62
1
100
AcDbSpline
 70
8
 71
3
 72
8
 73
4
 74
0
 40
0
 40
0
 40
0
 40
0
 40
1
 40
1
 40
1
 40
1
 10
505.034262
 20
565.176805
 30
0.0
 10
504.186570
 20
563.130295
 30
0.0
 10
504.655135
 20
560.774660
 30
0.0
 10
506.221466
 20
559.208329
 30
0.0
  0
SPLINE
  5
1ab
100
AcDbEntity
  8
Layer_1
 62
1
100
AcDbSpline
 70
8
 71
3
 72
8
 73
4
 74
0
 40
0
 40
0
 40
0
 40
0
 40
1
 40
1
 40
1
 40
1
 10
506.221466
 20
559.208329
 30
0.0
 10
507.787796
 20
557.641997
 30
0.0
 10
510.143431
 20
557.173432
 30
0.0
 10
512.189941
 20
558.021125
 30
0.0
  0
SPLINE
  5
1ac
100
AcDbEntity
  8
Layer_1
 62
1
100
AcDbSpline
 70
8
 71
3
 72
8
 73
4
 74
0
 40
0
 40
0
 40
0
 40
0
 40
1
 40
1
 40
1
 40
1
 10
512.189941
 20
558.021125
 30
0.0
 10
514.236451
 20
558.868817
 30
0.0
 10
515.570811
 20
560.865828
 30
0.0
 10
515.570811
 20
563.080955
 30
0.0
  0
SPLINE
  5
1ad
100
AcDbEntity
  8
Layer_1
 62
1
100
AcDbSpline
 70
8
 71
3
 72
8
 73
4
 74
0
 40
0
 40
0
 40
0
 40
0
 40
1
 40
1
 40
1
 40
1
 10
515.570811
 20
563.080955
 30
0.0
 10
515.570811
 20
564.533472
 30
0.0
 10
514.993801
 20
565.926497
 30
0.0
 10
513.966717
 20
566.953581
 30
0.0
  0
SPLINE
  5
1ae
100
AcDbEntity
  8
Layer_1
 62
1
100
AcDbSpline
 70
8
 71
3
 72
8
 73
4
 74
0
 40
0
 40
0
 40
0
 40
0
 40
1
 40
1
 40
1
 40
1
 10
513.966717
 20
566.953581
 30
0.0
 10
512.939633
 20
567.980666
 30
0.0
 10
511.546608
 20
568.557676
 30
0.0
 10
510.094091
 20
568.557676
 30
0.0
  0
LWPOLYLINE
  5
1af
100
AcDbEntity
  8
Layer_1
 62
1
100
AcDbPolyline
 90
1
 70
1
 10
510.094091
 20
659.266337
 30
0.0
  0
LWPOLYLINE
  5
1b0
100
AcDbEntity
  8
Layer_1
 62
1
100
AcDbPolyline
 90
1
 70
1
 10
510.094091
 20
568.557676
 30
0.0
  0
LWPOLYLINE
  5
1b1
100
AcDbEntity
  8
Layer_1
 62
1
100
AcDbPolyline
 90
4
 70
1
 10
468.263849
 20
771.024410
 30
0.0
 10
552.758774
 20
771.024410
 30
0.0
 10
552.758774
 20
417.238152
 30
0.0
 10
468.263849
 20
417.238152
 30
0.0
  0
SPLINE
  5
1b2
100
AcDbEntity
  8
Layer_1
 62
1
100
AcDbSpline
 70
8
 71
3
 72
8
 73
4
 74
0
 40
0
 40
0
 40
0
 40
0
 40
1
 40
1
 40
1
 40
1
 10
212.730885
 20
723.161620
 30
0.0
 10
210.515759
 20
723.161620
 30
0.0
 10
208.518748
 20
721.827260
 30
0.0
 10
207.671056
 20
719.780750
 30
0.0
  0
SPLINE
  5
1b3
100
AcDbEntity
  8
Layer_1
 62
1
100
AcDbSpline
 70
8
 71
3
 72
8
 73
4
 74
0
 40
0
 40
0
 40
0
 40
0
 40
1
 40
1
 40
1
 40
1
 10
207.671056
 20
719.780750
 30
0.0
 10
206.823364
 20
717.734240
 30
0.0
 10
207.291929
 20
715.378604
 30
0.0
 10
208.858260
 20
713.812273
 30
0.0
  0
SPLINE
  5
1b4
100
AcDbEntity
  8
Layer_1
 62
1
100
AcDbSpline
 70
8
 71
3
 72
8
 73
4
 74
0
 40
0
 40
0
 40
0
 40
0
 40
1
 40
1
 40
1
 40
1
 10
208.858260
 20
713.812273
 30
0.0
 10
210.424590
 20
712.245942
 30
0.0
 10
212.780225
 20
711.777377
 30
0.0
 10
214.826735
 20
712.625069
 30
0.0
  0
SPLINE
  5
1b5
100
AcDbEntity
  8
Layer_1
 62
1
100
AcDbSpline
 70
8
 71
3
 72
8
 73
4
 74
0
 40
0
 40
0
 40
0
 40
0
 40
1
 40
1
 40
1
 40
1
 10
214.826735
 20
712.625069
 30
0.0
 10
216.873245
 20
713.472762
 30
0.0
 10
218.207605
 20
715.469773
 30
0.0
 10
218.207605
 20
717.684900
 30
0.0
  0
SPLINE
  5
1b6
100
AcDbEntity
  8
Layer_1
 62
1
100
AcDbSpline
 70
8
 71
3
 72
8
 73
4
 74
0
 40
0
 40
0
 40
0
 40
0
 40
1
 40
1
 40
1
 40
1
 10
218.207605
 20
717.684900
 30
0.0
 10
218.207605
 20
719.137416
 30
0.0
 10
217.630595
 20
720.530442
 30
0.0
 10
216.603511
 20
721.557526
 30
0.0
  0
SPLINE
  5
1b7
100
AcDbEntity
  8
Layer_1
 62
1
100
AcDbSpline
 70
8
 71
3
 72
8
 73
4
 74
0
 40
0
 40
0
 40
0
 40
0
 40
1
 40
1
 40
1
 40
1
 10
216.603511
 20
721.557526
 30
0.0
 10
215.576427
 20
722.584610
 30
0.0
 10
214.183402
 20
723.161620
 30
0.0
 10
212.730885
 20
723.161620
 30
0.0
  0
LWPOLYLINE
  5
1b8
100
AcDbEntity
  8
Layer_1
 62
1
100
AcDbPolyline
 90
4
 70
1
 10
170.344676
 20
771.024554
 30
0.0
 10
255.117099
 20
771.024554
 30
0.0
 10
255.117099
 20
686.252128
 30
0.0
 10
170.344676
 20
686.252128
 30
0.0
  0
SPLINE
  5
1b9
100
AcDbEntity
  8
Layer_1
 62
1
100
AcDbSpline
 70
8
 71
3
 72
8
 73
4
 74
0
 40
0
 40
0
 40
0
 40
0
 40
1
 40
1
 40
1
 40
1
 10
212.730885
 20
745.068502
 30
0.0
 10
210.515759
 20
745.068502
 30
0.0
 10
208.518748
 20
743.734142
 30
0.0
 10
207.671056
 20
741.687631
 30
0.0
  0
SPLINE
  5
1ba
100
AcDbEntity
  8
Layer_1
 62
1
100
AcDbSpline
 70
8
 71
3
 72
8
 73
4
 74
0
 40
0
 40
0
 40
0
 40
0
 40
1
 40
1
 40
1
 40
1
 10
207.671056
 20
741.687631
 30
0.0
 10
206.823364
 20
739.641121
 30
0.0
 10
207.291929
 20
737.285486
 30
0.0
 10
208.858260
 20
735.719155
 30
0.0
  0
SPLINE
  5
1bb
100
AcDbEntity
  8
Layer_1
 62
1
100
AcDbSpline
 70
8
 71
3
 72
8
 73
4
 74
0
 40
0
 40
0
 40
0
 40
0
 40
1
 40
1
 40
1
 40
1
 10
208.858260
 20
735.719155
 30
0.0
 10
210.424590
 20
734.152823
 30
0.0
 10
212.780225
 20
733.684259
 30
0.0
 10
214.826735
 20
734.531951
 30
0.0
  0
SPLINE
  5
1bc
100
AcDbEntity
  8
Layer_1
 62
1
100
AcDbSpline
 70
8
 71
3
 72
8
 73
4
 74
0
 40
0
 40
0
 40
0
 40
0
 40
1
 40
1
 40
1
 40
1
 10
214.826735
 20
734.531951
 30
0.0
 10
216.873245
 20
735.379643
 30
0.0
 10
218.207605
 20
737.376654
 30
0.0
 10
218.207605
 20
739.591781
 30
0.0
  0
SPLINE
  5
1bd
100
AcDbEntity
  8
Layer_1
 62
1
100
AcDbSpline
 70
8
 71
3
 72
8
 73
4
 74
0
 40
0
 40
0
 40
0
 40
0
 40
1
 40
1
 40
1
 40
1
 10
218.207605
 20
739.591781
 30
0.0
 10
218.207605
 20
741.044298
 30
0.0
 10
217.630595
 20
742.437323
 30
0.0
 10
216.603511
 20
743.464408
 30
0.0
  0
SPLINE
  5
1be
100
AcDbEntity
  8
Layer_1
 62
1
100
AcDbSpline
 70
8
 71
3
 72
8
 73
4
 74
0
 40
0
 40
0
 40
0
 40
0
 40
1
 40
1
 40
1
 40
1
 10
216.603511
 20
743.464408
 30
0.0
 10
215.576427
 20
744.491492
 30
0.0
 10
214.183402
 20
745.068502
 30
0.0
 10
212.730885
 20
745.068502
 30
0.0
  0
LWPOLYLINE
  5
1bf
100
AcDbEntity
  8
Layer_1
 62
1
100
AcDbPolyline
 90
1
 70
1
 10
212.730885
 20
723.161620
 30
0.0
  0
LWPOLYLINE
  5
1c0
100
AcDbEntity
  8
Layer_1
 62
1
100
AcDbPolyline
 90
1
 70
1
 10
212.730885
 20
745.068502
 30
0.0
  0
SPLINE
  5
1c1
100
AcDbEntity
  8
Layer_1
 62
1
100
AcDbSpline
 70
8
 71
3
 72
8
 73
4
 74
0
 40
0
 40
0
 40
0
 40
0
 40
1
 40
1
 40
1
 40
1
 10
311.808555
 20
723.028109
 30
0.0
 10
309.593428
 20
723.028109
 30
0.0
 10
307.596417
 20
721.693748
 30
0.0
 10
306.748725
 20
719.647238
 30
0.0
  0
SPLINE
  5
1c2
100
AcDbEntity
  8
Layer_1
 62
1
100
AcDbSpline
 70
8
 71
3
 72
8
 73
4
 74
0
 40
0
 40
0
 40
0
 40
0
 40
1
 40
1
 40
1
 40
1
 10
306.748725
 20
719.647238
 30
0.0
 10
305.901033
 20
717.600728
 30
0.0
 10
306.369598
 20
715.245092
 30
0.0
 10
307.935929
 20
713.678761
 30
0.0
  0
SPLINE
  5
1c3
100
AcDbEntity
  8
Layer_1
 62
1
100
AcDbSpline
 70
8
 71
3
 72
8
 73
4
 74
0
 40
0
 40
0
 40
0
 40
0
 40
1
 40
1
 40
1
 40
1
 10
307.935929
 20
713.678761
 30
0.0
 10
309.502260
 20
712.112430
 30
0.0
 10
311.857895
 20
711.643865
 30
0.0
 10
313.904405
 20
712.491557
 30
0.0
  0
SPLINE
  5
1c4
100
AcDbEntity
  8
Layer_1
 62
1
100
AcDbSpline
 70
8
 71
3
 72
8
 73
4
 74
0
 40
0
 40
0
 40
0
 40
0
 40
1
 40
1
 40
1
 40
1
 10
313.904405
 20
712.491557
 30
0.0
 10
315.950915
 20
713.339250
 30
0.0
 10
317.285275
 20
715.336261
 30
0.0
 10
317.285275
 20
717.551388
 30
0.0
  0
SPLINE
  5
1c5
100
AcDbEntity
  8
Layer_1
 62
1
100
AcDbSpline
 70
8
 71
3
 72
8
 73
4
 74
0
 40
0
 40
0
 40
0
 40
0
 40
1
 40
1
 40
1
 40
1
 10
317.285275
 20
717.551388
 30
0.0
 10
317.285275
 20
719.003904
 30
0.0
 10
316.708265
 20
720.396930
 30
0.0
 10
315.681180
 20
721.424014
 30
0.0
  0
SPLINE
  5
1c6
100
AcDbEntity
  8
Layer_1
 62
1
100
AcDbSpline
 70
8
 71
3
 72
8
 73
4
 74
0
 40
0
 40
0
 40
0
 40
0
 40
1
 40
1
 40
1
 40
1
 10
315.681180
 20
721.424014
 30
0.0
 10
314.654096
 20
722.451099
 30
0.0
 10
313.261071
 20
723.028109
 30
0.0
 10
311.808555
 20
723.028109
 30
0.0
  0
LWPOLYLINE
  5
1c7
100
AcDbEntity
  8
Layer_1
 62
1
100
AcDbPolyline
 90
4
 70
1
 10
269.422345
 20
770.891042
 30
0.0
 10
354.194768
 20
770.891042
 30
0.0
 10
354.194768
 20
686.118616
 30
0.0
 10
269.422345
 20
686.118616
 30
0.0
  0
SPLINE
  5
1c8
100
AcDbEntity
  8
Layer_1
 62
1
100
AcDbSpline
 70
8
 71
3
 72
8
 73
4
 74
0
 40
0
 40
0
 40
0
 40
0
 40
1
 40
1
 40
1
 40
1
 10
311.808555
 20
744.934990
 30
0.0
 10
309.593428
 20
744.934990
 30
0.0
 10
307.596417
 20
743.600630
 30
0.0
 10
306.748725
 20
741.554120
 30
0.0
  0
SPLINE
  5
1c9
100
AcDbEntity
  8
Layer_1
 62
1
100
AcDbSpline
 70
8
 71
3
 72
8
 73
4
 74
0
 40
0
 40
0
 40
0
 40
0
 40
1
 40
1
 40
1
 40
1
 10
306.748725
 20
741.554120
 30
0.0
 10
305.901033
 20
739.507609
 30
0.0
 10
306.369598
 20
737.151974
 30
0.0
 10
307.935929
 20
735.585643
 30
0.0
  0
SPLINE
  5
1ca
100
AcDbEntity
  8
Layer_1
 62
1
100
AcDbSpline
 70
8
 71
3
 72
8
 73
4
 74
0
 40
0
 40
0
 40
0
 40
0
 40
1
 40
1
 40
1
 40
1
 10
307.935929
 20
735.585643
 30
0.0
 10
309.502260
 20
734.019312
 30
0.0
 10
311.857895
 20
733.550747
 30
0.0
 10
313.904405
 20
734.398439
 30
0.0
  0
SPLINE
  5
1cb
100
AcDbEntity
  8
Layer_1
 62
1
100
AcDbSpline
 70
8
 71
3
 72
8
 73
4
 74
0
 40
0
 40
0
 40
0
 40
0
 40
1
 40
1
 40
1
 40
1
 10
313.904405
 20
734.398439
 30
0.0
 10
315.950915
 20
735.246131
 30
0.0
 10
317.285275
 20
737.243142
 30
0.0
 10
317.285275
 20
739.458269
 30
0.0
  0
SPLINE
  5
1cc
100
AcDbEntity
  8
Layer_1
 62
1
100
AcDbSpline
 70
8
 71
3
 72
8
 73
4
 74
0
 40
0
 40
0
 40
0
 40
0
 40
1
 40
1
 40
1
 40
1
 10
317.285275
 20
739.458269
 30
0.0
 10
317.285275
 20
740.910786
 30
0.0
 10
316.708265
 20
742.303811
 30
0.0
 10
315.681180
 20
743.330896
 30
0.0
  0
SPLINE
  5
1cd
100
AcDbEntity
  8
Layer_1
 62
1
100
AcDbSpline
 70
8
 71
3
 72
8
 73
4
 74
0
 40
0
 40
0
 40
0
 40
0
 40
1
 40
1
 40
1
 40
1
 10
315.681180
 20
743.330896
 30
0.0
 10
314.654096
 20
744.357980
 30
0.0
 10
313.261071
 20
744.934990
 30
0.0
 10
311.808555
 20
744.934990
 30
0.0
  0
LWPOLYLINE
  5
1ce
100
AcDbEntity
  8
Layer_1
 62
1
100
AcDbPolyline
 90
1
 70
1
 10
311.808555
 20
723.028109
 30
0.0
  0
LWPOLYLINE
  5
1cf
100
AcDbEntity
  8
Layer_1
 62
1
100
AcDbPolyline
 90
1
 70
1
 10
311.808555
 20
744.934990
 30
0.0
  0
SPLINE
  5
1d0
100
AcDbEntity
  8
Layer_1
 62
1
100
AcDbSpline
 70
8
 71
3
 72
8
 73
4
 74
0
 40
0
 40
0
 40
0
 40
0
 40
1
 40
1
 40
1
 40
1
 10
410.892460
 20
723.161620
 30
0.0
 10
408.677334
 20
723.161620
 30
0.0
 10
406.680323
 20
721.827260
 30
0.0
 10
405.832631
 20
719.780750
 30
0.0
  0
SPLINE
  5
1d1
100
AcDbEntity
  8
Layer_1
 62
1
100
AcDbSpline
 70
8
 71
3
 72
8
 73
4
 74
0
 40
0
 40
0
 40
0
 40
0
 40
1
 40
1
 40
1
 40
1
 10
405.832631
 20
719.780750
 30
0.0
 10
404.984938
 20
717.734240
 30
0.0
 10
405.453503
 20
715.378604
 30
0.0
 10
407.019834
 20
713.812273
 30
0.0
  0
SPLINE
  5
1d2
100
AcDbEntity
  8
Layer_1
 62
1
100
AcDbSpline
 70
8
 71
3
 72
8
 73
4
 74
0
 40
0
 40
0
 40
0
 40
0
 40
1
 40
1
 40
1
 40
1
 10
407.019834
 20
713.812273
 30
0.0
 10
408.586165
 20
712.245942
 30
0.0
 10
410.941800
 20
711.777377
 30
0.0
 10
412.988310
 20
712.625069
 30
0.0
  0
SPLINE
  5
1d3
100
AcDbEntity
  8
Layer_1
 62
1
100
AcDbSpline
 70
8
 71
3
 72
8
 73
4
 74
0
 40
0
 40
0
 40
0
 40
0
 40
1
 40
1
 40
1
 40
1
 10
412.988310
 20
712.625069
 30
0.0
 10
415.034820
 20
713.472762
 30
0.0
 10
416.369180
 20
715.469773
 30
0.0
 10
416.369180
 20
717.684900
 30
0.0
  0
SPLINE
  5
1d4
100
AcDbEntity
  8
Layer_1
 62
1
100
AcDbSpline
 70
8
 71
3
 72
8
 73
4
 74
0
 40
0
 40
0
 40
0
 40
0
 40
1
 40
1
 40
1
 40
1
 10
416.369180
 20
717.684900
 30
0.0
 10
416.369180
 20
719.137416
 30
0.0
 10
415.792170
 20
720.530442
 30
0.0
 10
414.765086
 20
721.557526
 30
0.0
  0
SPLINE
  5
1d5
100
AcDbEntity
  8
Layer_1
 62
1
100
AcDbSpline
 70
8
 71
3
 72
8
 73
4
 74
0
 40
0
 40
0
 40
0
 40
0
 40
1
 40
1
 40
1
 40
1
 10
414.765086
 20
721.557526
 30
0.0
 10
413.738002
 20
722.584610
 30
0.0
 10
412.344977
 20
723.161620
 30
0.0
 10
410.892460
 20
723.161620
 30
0.0
  0
LWPOLYLINE
  5
1d6
100
AcDbEntity
  8
Layer_1
 62
1
100
AcDbPolyline
 90
4
 70
1
 10
368.506251
 20
771.024554
 30
0.0
 10
453.278674
 20
771.024554
 30
0.0
 10
453.278674
 20
686.252128
 30
0.0
 10
368.506251
 20
686.252128
 30
0.0
  0
SPLINE
  5
1d7
100
AcDbEntity
  8
Layer_1
 62
1
100
AcDbSpline
 70
8
 71
3
 72
8
 73
4
 74
0
 40
0
 40
0
 40
0
 40
0
 40
1
 40
1
 40
1
 40
1
 10
410.892460
 20
745.068502
 30
0.0
 10
408.677334
 20
745.068502
 30
0.0
 10
406.680323
 20
743.734142
 30
0.0
 10
405.832631
 20
741.687631
 30
0.0
  0
SPLINE
  5
1d8
100
AcDbEntity
  8
Layer_1
 62
1
100
AcDbSpline
 70
8
 71
3
 72
8
 73
4
 74
0
 40
0
 40
0
 40
0
 40
0
 40
1
 40
1
 40
1
 40
1
 10
405.832631
 20
741.687631
 30
0.0
 10
404.984938
 20
739.641121
 30
0.0
 10
405.453503
 20
737.285486
 30
0.0
 10
407.019834
 20
735.719155
 30
0.0
  0
SPLINE
  5
1d9
100
AcDbEntity
  8
Layer_1
 62
1
100
AcDbSpline
 70
8
 71
3
 72
8
 73
4
 74
0
 40
0
 40
0
 40
0
 40
0
 40
1
 40
1
 40
1
 40
1
 10
407.019834
 20
735.719155
 30
0.0
 10
408.586165
 20
734.152823
 30
0.0
 10
410.941800
 20
733.684259
 30
0.0
 10
412.988310
 20
734.531951
 30
0.0
  0
SPLINE
  5
1da
100
AcDbEntity
  8
Layer_1
 62
1
100
AcDbSpline
 70
8
 71
3
 72
8
 73
4
 74
0
 40
0
 40
0
 40
0
 40
0
 40
1
 40
1
 40
1
 40
1
 10
412.988310
 20
734.531951
 30
0.0
 10
415.034820
 20
735.379643
 30
0.0
 10
416.369180
 20
737.376654
 30
0.0
 10
416.369180
 20
739.591781
 30
0.0
  0
SPLINE
  5
1db
100
AcDbEntity
  8
Layer_1
 62
1
100
AcDbSpline
 70
8
 71
3
 72
8
 73
4
 74
0
 40
0
 40
0
 40
0
 40
0
 40
1
 40
1
 40
1
 40
1
 10
416.369180
 20
739.591781
 30
0.0
 10
416.369180
 20
741.044298
 30
0.0
 10
415.792170
 20
742.437323
 30
0.0
 10
414.765086
 20
743.464408
 30
0.0
  0
SPLINE
  5
1dc
100
AcDbEntity
  8
Layer_1
 62
1
100
AcDbSpline
 70
8
 71
3
 72
8
 73
4
 74
0
 40
0
 40
0
 40
0
 40
0
 40
1
 40
1
 40
1
 40
1
 10
414.765086
 20
743.464408
 30
0.0
 10
413.738002
 20
744.491492
 30
0.0
 10
412.344977
 20
745.068502
 30
0.0
 10
410.892460
 20
745.068502
 30
0.0
  0
LWPOLYLINE
  5
1dd
100
AcDbEntity
  8
Layer_1
 62
1
100
AcDbPolyline
 90
1
 70
1
 10
410.892460
 20
723.161620
 30
0.0
  0
SPLINE
  5
1de
100
AcDbEntity
  8
Layer_1
 62
1
100
AcDbSpline
 70
8
 71
3
 72
8
 73
4
 74
0
 40
0
 40
0
 40
0
 40
0
 40
1
 40
1
 40
1
 40
1
 10
212.769935
 20
628.476181
 30
0.0
 10
210.554809
 20
628.476181
 30
0.0
 10
208.557798
 20
627.141820
 30
0.0
 10
207.710106
 20
625.095310
 30
0.0
  0
SPLINE
  5
1df
100
AcDbEntity
  8
Layer_1
 62
1
100
AcDbSpline
 70
8
 71
3
 72
8
 73
4
 74
0
 40
0
 40
0
 40
0
 40
0
 40
1
 40
1
 40
1
 40
1
 10
207.710106
 20
625.095310
 30
0.0
 10
206.862414
 20
623.048800
 30
0.0
 10
207.330979
 20
620.693165
 30
0.0
 10
208.897310
 20
619.126833
 30
0.0
  0
SPLINE
  5
1e0
100
AcDbEntity
  8
Layer_1
 62
1
100
AcDbSpline
 70
8
 71
3
 72
8
 73
4
 74
0
 40
0
 40
0
 40
0
 40
0
 40
1
 40
1
 40
1
 40
1
 10
208.897310
 20
619.126833
 30
0.0
 10
210.463641
 20
617.560502
 30
0.0
 10
212.819275
 20
617.091937
 30
0.0
 10
214.865785
 20
617.939630
 30
0.0
  0
SPLINE
  5
1e1
100
AcDbEntity
  8
Layer_1
 62
1
100
AcDbSpline
 70
8
 71
3
 72
8
 73
4
 74
0
 40
0
 40
0
 40
0
 40
0
 40
1
 40
1
 40
1
 40
1
 10
214.865785
 20
617.939630
 30
0.0
 10
216.912295
 20
618.787322
 30
0.0
 10
218.246655
 20
620.784333
 30
0.0
 10
218.246655
 20
622.999460
 30
0.0
  0
SPLINE
  5
1e2
100
AcDbEntity
  8
Layer_1
 62
1
100
AcDbSpline
 70
8
 71
3
 72
8
 73
4
 74
0
 40
0
 40
0
 40
0
 40
0
 40
1
 40
1
 40
1
 40
1
 10
218.246655
 20
622.999460
 30
0.0
 10
218.246655
 20
624.451977
 30
0.0
 10
217.669645
 20
625.845002
 30
0.0
 10
216.642561
 20
626.872086
 30
0.0
  0
SPLINE
  5
1e3
100
AcDbEntity
  8
Layer_1
 62
1
100
AcDbSpline
 70
8
 71
3
 72
8
 73
4
 74
0
 40
0
 40
0
 40
0
 40
0
 40
1
 40
1
 40
1
 40
1
 10
216.642561
 20
626.872086
 30
0.0
 10
215.615477
 20
627.899171
 30
0.0
 10
214.222452
 20
628.476181
 30
0.0
 10
212.769935
 20
628.476181
 30
0.0
  0
LWPOLYLINE
  5
1e4
100
AcDbEntity
  8
Layer_1
 62
1
100
AcDbPolyline
 90
1
 70
1
 10
410.892460
 20
745.068502
 30
0.0
  0
SPLINE
  5
1e5
100
AcDbEntity
  8
Layer_1
 62
1
100
AcDbSpline
 70
8
 71
3
 72
8
 73
4
 74
0
 40
0
 40
0
 40
0
 40
0
 40
1
 40
1
 40
1
 40
1
 10
212.769935
 20
584.662401
 30
0.0
 10
210.554809
 20
584.662401
 30
0.0
 10
208.557798
 20
583.328040
 30
0.0
 10
207.710106
 20
581.281530
 30
0.0
  0
SPLINE
  5
1e6
100
AcDbEntity
  8
Layer_1
 62
1
100
AcDbSpline
 70
8
 71
3
 72
8
 73
4
 74
0
 40
0
 40
0
 40
0
 40
0
 40
1
 40
1
 40
1
 40
1
 10
207.710106
 20
581.281530
 30
0.0
 10
206.862414
 20
579.235020
 30
0.0
 10
207.330979
 20
576.879384
 30
0.0
 10
208.897310
 20
575.313053
 30
0.0
  0
SPLINE
  5
1e7
100
AcDbEntity
  8
Layer_1
 62
1
100
AcDbSpline
 70
8
 71
3
 72
8
 73
4
 74
0
 40
0
 40
0
 40
0
 40
0
 40
1
 40
1
 40
1
 40
1
 10
208.897310
 20
575.313053
 30
0.0
 10
210.463641
 20
573.746722
 30
0.0
 10
212.819275
 20
573.278157
 30
0.0
 10
214.865785
 20
574.125849
 30
0.0
  0
SPLINE
  5
1e8
100
AcDbEntity
  8
Layer_1
 62
1
100
AcDbSpline
 70
8
 71
3
 72
8
 73
4
 74
0
 40
0
 40
0
 40
0
 40
0
 40
1
 40
1
 40
1
 40
1
 10
214.865785
 20
574.125849
 30
0.0
 10
216.912295
 20
574.973542
 30
0.0
 10
218.246655
 20
576.970553
 30
0.0
 10
218.246655
 20
579.185680
 30
0.0
  0
SPLINE
  5
1e9
100
AcDbEntity
  8
Layer_1
 62
1
100
AcDbSpline
 70
8
 71
3
 72
8
 73
4
 74
0
 40
0
 40
0
 40
0
 40
0
 40
1
 40
1
 40
1
 40
1
 10
218.246655
 20
579.185680
 30
0.0
 10
218.246655
 20
580.638196
 30
0.0
 10
217.669645
 20
582.031222
 30
0.0
 10
216.642561
 20
583.058306
 30
0.0
  0
SPLINE
  5
1ea
100
AcDbEntity
  8
Layer_1
 62
1
100
AcDbSpline
 70
8
 71
3
 72
8
 73
4
 74
0
 40
0
 40
0
 40
0
 40
0
 40
1
 40
1
 40
1
 40
1
 10
216.642561
 20
583.058306
 30
0.0
 10
215.615477
 20
584.085391
 30
0.0
 10
214.222452
 20
584.662401
 30
0.0
 10
212.769935
 20
584.662401
 30
0.0
  0
LWPOLYLINE
  5
1eb
100
AcDbEntity
  8
Layer_1
 62
1
100
AcDbPolyline
 90
1
 70
1
 10
212.769935
 20
628.476181
 30
0.0
  0
LWPOLYLINE
  5
1ec
100
AcDbEntity
  8
Layer_1
 62
1
100
AcDbPolyline
 90
1
 70
1
 10
212.769935
 20
584.662401
 30
0.0
  0
SPLINE
  5
1ed
100
AcDbEntity
  8
Layer_1
 62
1
100
AcDbSpline
 70
8
 71
3
 72
8
 73
4
 74
0
 40
0
 40
0
 40
0
 40
0
 40
1
 40
1
 40
1
 40
1
 10
311.980833
 20
628.476181
 30
0.0
 10
309.765707
 20
628.476181
 30
0.0
 10
307.768696
 20
627.141820
 30
0.0
 10
306.921004
 20
625.095310
 30
0.0
  0
SPLINE
  5
1ee
100
AcDbEntity
  8
Layer_1
 62
1
100
AcDbSpline
 70
8
 71
3
 72
8
 73
4
 74
0
 40
0
 40
0
 40
0
 40
0
 40
1
 40
1
 40
1
 40
1
 10
306.921004
 20
625.095310
 30
0.0
 10
306.073311
 20
623.048800
 30
0.0
 10
306.541876
 20
620.693165
 30
0.0
 10
308.108207
 20
619.126833
 30
0.0
  0
SPLINE
  5
1ef
100
AcDbEntity
  8
Layer_1
 62
1
100
AcDbSpline
 70
8
 71
3
 72
8
 73
4
 74
0
 40
0
 40
0
 40
0
 40
0
 40
1
 40
1
 40
1
 40
1
 10
308.108207
 20
619.126833
 30
0.0
 10
309.674538
 20
617.560502
 30
0.0
 10
312.030173
 20
617.091937
 30
0.0
 10
314.076683
 20
617.939630
 30
0.0
  0
SPLINE
  5
1f0
100
AcDbEntity
  8
Layer_1
 62
1
100
AcDbSpline
 70
8
 71
3
 72
8
 73
4
 74
0
 40
0
 40
0
 40
0
 40
0
 40
1
 40
1
 40
1
 40
1
 10
314.076683
 20
617.939630
 30
0.0
 10
316.123193
 20
618.787322
 30
0.0
 10
317.457553
 20
620.784333
 30
0.0
 10
317.457553
 20
622.999460
 30
0.0
  0
SPLINE
  5
1f1
100
AcDbEntity
  8
Layer_1
 62
1
100
AcDbSpline
 70
8
 71
3
 72
8
 73
4
 74
0
 40
0
 40
0
 40
0
 40
0
 40
1
 40
1
 40
1
 40
1
 10
317.457553
 20
622.999460
 30
0.0
 10
317.457553
 20
624.451977
 30
0.0
 10
316.880543
 20
625.845002
 30
0.0
 10
315.853459
 20
626.872086
 30
0.0
  0
SPLINE
  5
1f2
100
AcDbEntity
  8
Layer_1
 62
1
100
AcDbSpline
 70
8
 71
3
 72
8
 73
4
 74
0
 40
0
 40
0
 40
0
 40
0
 40
1
 40
1
 40
1
 40
1
 10
315.853459
 20
626.872086
 30
0.0
 10
314.826375
 20
627.899171
 30
0.0
 10
313.433350
 20
628.476181
 30
0.0
 10
311.980833
 20
628.476181
 30
0.0
  0
LWPOLYLINE
  5
1f3
100
AcDbEntity
  8
Layer_1
 62
1
100
AcDbPolyline
 90
4
 70
1
 10
170.422546
 20
671.786413
 30
0.0
 10
255.117328
 20
671.786413
 30
0.0
 10
255.117328
 20
530.398718
 30
0.0
 10
170.422546
 20
530.398718
 30
0.0
  0
SPLINE
  5
1f4
100
AcDbEntity
  8
Layer_1
 62
1
100
AcDbSpline
 70
8
 71
3
 72
8
 73
4
 74
0
 40
0
 40
0
 40
0
 40
0
 40
1
 40
1
 40
1
 40
1
 10
311.980833
 20
584.662401
 30
0.0
 10
309.765707
 20
584.662401
 30
0.0
 10
307.768696
 20
583.328040
 30
0.0
 10
306.921004
 20
581.281530
 30
0.0
  0
SPLINE
  5
1f5
100
AcDbEntity
  8
Layer_1
 62
1
100
AcDbSpline
 70
8
 71
3
 72
8
 73
4
 74
0
 40
0
 40
0
 40
0
 40
0
 40
1
 40
1
 40
1
 40
1
 10
306.921004
 20
581.281530
 30
0.0
 10
306.073311
 20
579.235020
 30
0.0
 10
306.541876
 20
576.879384
 30
0.0
 10
308.108207
 20
575.313053
 30
0.0
  0
SPLINE
  5
1f6
100
AcDbEntity
  8
Layer_1
 62
1
100
AcDbSpline
 70
8
 71
3
 72
8
 73
4
 74
0
 40
0
 40
0
 40
0
 40
0
 40
1
 40
1
 40
1
 40
1
 10
308.108207
 20
575.313053
 30
0.0
 10
309.674538
 20
573.746722
 30
0.0
 10
312.030173
 20
573.278157
 30
0.0
 10
314.076683
 20
574.125849
 30
0.0
  0
SPLINE
  5
1f7
100
AcDbEntity
  8
Layer_1
 62
1
100
AcDbSpline
 70
8
 71
3
 72
8
 73
4
 74
0
 40
0
 40
0
 40
0
 40
0
 40
1
 40
1
 40
1
 40
1
 10
314.076683
 20
574.125849
 30
0.0
 10
316.123193
 20
574.973542
 30
0.0
 10
317.457553
 20
576.970553
 30
0.0
 10
317.457553
 20
579.185680
 30
0.0
  0
SPLINE
  5
1f8
100
AcDbEntity
  8
Layer_1
 62
1
100
AcDbSpline
 70
8
 71
3
 72
8
 73
4
 74
0
 40
0
 40
0
 40
0
 40
0
 40
1
 40
1
 40
1
 40
1
 10
317.457553
 20
579.185680
 30
0.0
 10
317.457553
 20
580.638196
 30
0.0
 10
316.880543
 20
582.031222
 30
0.0
 10
315.853459
 20
583.058306
 30
0.0
  0
SPLINE
  5
1f9
100
AcDbEntity
  8
Layer_1
 62
1
100
AcDbSpline
 70
8
 71
3
 72
8
 73
4
 74
0
 40
0
 40
0
 40
0
 40
0
 40
1
 40
1
 40
1
 40
1
 10
315.853459
 20
583.058306
 30
0.0
 10
314.826375
 20
584.085391
 30
0.0
 10
313.433350
 20
584.662401
 30
0.0
 10
311.980833
 20
584.662401
 30
0.0
  0
LWPOLYLINE
  5
1fa
100
AcDbEntity
  8
Layer_1
 62
1
100
AcDbPolyline
 90
1
 70
1
 10
311.980833
 20
628.476181
 30
0.0
  0
LWPOLYLINE
  5
1fb
100
AcDbEntity
  8
Layer_1
 62
1
100
AcDbPolyline
 90
1
 70
1
 10
311.980833
 20
584.662401
 30
0.0
  0
SPLINE
  5
1fc
100
AcDbEntity
  8
Layer_1
 62
1
100
AcDbSpline
 70
8
 71
3
 72
8
 73
4
 74
0
 40
0
 40
0
 40
0
 40
0
 40
1
 40
1
 40
1
 40
1
 10
411.023636
 20
628.303891
 30
0.0
 10
408.808510
 20
628.303891
 30
0.0
 10
406.811499
 20
626.969531
 30
0.0
 10
405.963807
 20
624.923021
 30
0.0
  0
SPLINE
  5
1fd
100
AcDbEntity
  8
Layer_1
 62
1
100
AcDbSpline
 70
8
 71
3
 72
8
 73
4
 74
0
 40
0
 40
0
 40
0
 40
0
 40
1
 40
1
 40
1
 40
1
 10
405.963807
 20
624.923021
 30
0.0
 10
405.116115
 20
622.876510
 30
0.0
 10
405.584679
 20
620.520875
 30
0.0
 10
407.151010
 20
618.954544
 30
0.0
  0
SPLINE
  5
1fe
100
AcDbEntity
  8
Layer_1
 62
1
100
AcDbSpline
 70
8
 71
3
 72
8
 73
4
 74
0
 40
0
 40
0
 40
0
 40
0
 40
1
 40
1
 40
1
 40
1
 10
407.151010
 20
618.954544
 30
0.0
 10
408.717341
 20
617.388213
 30
0.0
 10
411.072976
 20
616.919648
 30
0.0
 10
413.119486
 20
617.767340
 30
0.0
  0
SPLINE
  5
1ff
100
AcDbEntity
  8
Layer_1
 62
1
100
AcDbSpline
 70
8
 71
3
 72
8
 73
4
 74
0
 40
0
 40
0
 40
0
 40
0
 40
1
 40
1
 40
1
 40
1
 10
413.119486
 20
617.767340
 30
0.0
 10
415.165996
 20
618.615032
 30
0.0
 10
416.500356
 20
620.612044
 30
0.0
 10
416.500356
 20
622.827170
 30
0.0
  0
SPLINE
  5
200
100
AcDbEntity
  8
Layer_1
 62
1
100
AcDbSpline
 70
8
 71
3
 72
8
 73
4
 74
0
 40
0
 40
0
 40
0
 40
0
 40
1
 40
1
 40
1
 40
1
 10
416.500356
 20
622.827170
 30
0.0
 10
416.500356
 20
624.279687
 30
0.0
 10
415.923346
 20
625.672712
 30
0.0
 10
414.896262
 20
626.699797
 30
0.0
  0
SPLINE
  5
201
100
AcDbEntity
  8
Layer_1
 62
1
100
AcDbSpline
 70
8
 71
3
 72
8
 73
4
 74
0
 40
0
 40
0
 40
0
 40
0
 40
1
 40
1
 40
1
 40
1
 10
414.896262
 20
626.699797
 30
0.0
 10
413.869178
 20
627.726881
 30
0.0
 10
412.476153
 20
628.303891
 30
0.0
 10
411.023636
 20
628.303891
 30
0.0
  0
LWPOLYLINE
  5
202
100
AcDbEntity
  8
Layer_1
 62
1
100
AcDbPolyline
 90
4
 70
1
 10
269.633443
 20
671.786413
 30
0.0
 10
354.328226
 20
671.786413
 30
0.0
 10
354.328226
 20
530.398718
 30
0.0
 10
269.633443
 20
530.398718
 30
0.0
  0
SPLINE
  5
203
100
AcDbEntity
  8
Layer_1
 62
1
100
AcDbSpline
 70
8
 71
3
 72
8
 73
4
 74
0
 40
0
 40
0
 40
0
 40
0
 40
1
 40
1
 40
1
 40
1
 10
411.023636
 20
584.490111
 30
0.0
 10
408.808510
 20
584.490111
 30
0.0
 10
406.811499
 20
583.155751
 30
0.0
 10
405.963807
 20
581.109241
 30
0.0
  0
SPLINE
  5
204
100
AcDbEntity
  8
Layer_1
 62
1
100
AcDbSpline
 70
8
 71
3
 72
8
 73
4
 74
0
 40
0
 40
0
 40
0
 40
0
 40
1
 40
1
 40
1
 40
1
 10
405.963807
 20
581.109241
 30
0.0
 10
405.116115
 20
579.062730
 30
0.0
 10
405.584679
 20
576.707095
 30
0.0
 10
407.151010
 20
575.140764
 30
0.0
  0
SPLINE
  5
205
100
AcDbEntity
  8
Layer_1
 62
1
100
AcDbSpline
 70
8
 71
3
 72
8
 73
4
 74
0
 40
0
 40
0
 40
0
 40
0
 40
1
 40
1
 40
1
 40
1
 10
407.151010
 20
575.140764
 30
0.0
 10
408.717341
 20
573.574433
 30
0.0
 10
411.072976
 20
573.105868
 30
0.0
 10
413.119486
 20
573.953560
 30
0.0
  0
SPLINE
  5
206
100
AcDbEntity
  8
Layer_1
 62
1
100
AcDbSpline
 70
8
 71
3
 72
8
 73
4
 74
0
 40
0
 40
0
 40
0
 40
0
 40
1
 40
1
 40
1
 40
1
 10
413.119486
 20
573.953560
 30
0.0
 10
415.165996
 20
574.801252
 30
0.0
 10
416.500356
 20
576.798263
 30
0.0
 10
416.500356
 20
579.013390
 30
0.0
  0
SPLINE
  5
207
100
AcDbEntity
  8
Layer_1
 62
1
100
AcDbSpline
 70
8
 71
3
 72
8
 73
4
 74
0
 40
0
 40
0
 40
0
 40
0
 40
1
 40
1
 40
1
 40
1
 10
416.500356
 20
579.013390
 30
0.0
 10
416.500356
 20
580.465907
 30
0.0
 10
415.923346
 20
581.858932
 30
0.0
 10
414.896262
 20
582.886017
 30
0.0
  0
SPLINE
  5
208
100
AcDbEntity
  8
Layer_1
 62
1
100
AcDbSpline
 70
8
 71
3
 72
8
 73
4
 74
0
 40
0
 40
0
 40
0
 40
0
 40
1
 40
1
 40
1
 40
1
 10
414.896262
 20
582.886017
 30
0.0
 10
413.869178
 20
583.913101
 30
0.0
 10
412.476153
 20
584.490111
 30
0.0
 10
411.023636
 20
584.490111
 30
0.0
  0
LWPOLYLINE
  5
209
100
AcDbEntity
  8
Layer_1
 62
1
100
AcDbPolyline
 90
1
 70
1
 10
411.023636
 20
628.303891
 30
0.0
  0
LWPOLYLINE
  5
20a
100
AcDbEntity
  8
Layer_1
 62
1
100
AcDbPolyline
 90
1
 70
1
 10
411.023636
 20
584.490111
 30
0.0
  0
LWPOLYLINE
  5
20b
100
AcDbEntity
  8
Layer_1
 62
1
100
AcDbPolyline
 90
4
 70
1
 10
368.676247
 20
671.614124
 30
0.0
 10
453.371029
 20
671.614124
 30
0.0
 10
453.371029
 20
530.226428
 30
0.0
 10
368.676247
 20
530.226428
 30
0.0
  0
ENDSEC
  0
SECTION
  2
OBJECTS
  0
DICTIONARY
  5
C
330
0
100
AcDbDictionary
  3
ACAD_GROUP
350
D
  3
ACAD_MLINESTYLE
350
17
  0
DICTIONARY
  5
D
330
C
100
AcDbDictionary
  0
DICTIONARY
  5
1A
330
C
100
AcDbDictionary
  0
DICTIONARY
  5
17
330
C
100
AcDbDictionary
  3
STANDARD
350
18
  0
DICTIONARY
  5
19
330
C
100
AcDbDictionary
  0
ENDSEC
  0
EOF
